  0
SECTION
  2
HEADER
  9
$ACADVER
  1
AC1002
  9
$INSBASE
 10
0.0
 20
0.0
  9
$EXTMIN
 10
-97.0
 20
-139.49354710474563
  9
$EXTMAX
 10
-2.103775875044704
 20
-111.49354710474563
  9
$LIMMIN
 10
0.0
 20
0.0
  9
$LIMMAX
 10
0.0
 20
0.0
  9
$VIEWCTR
 10
6.5912879999999996
 20
4.5791839999999997
  9
$VIEWSIZE
 40
9.1583690000000004
  9
$SNAPMODE
 70
               0
  9
$SNAPUNIT
 10
1.0
 20
1.0
  9
$SNAPBASE
 10
0.0
 20
0.0
  9
$SNAPANG
 50
0.0
  9
$SNAPSTYLE
 70
               0
  9
$SNAPISOPAIR
 70
               0
  9
$GRIDMODE
 70
               0
  9
$GRIDUNIT
 10
0.0
 20
0.0
  9
$ORTHOMODE
 70
               0
  9
$REGENMODE
 70
               1
  9
$FILLMODE
 70
               1
  9
$QTEXTMODE
 70
               0
  9
$DRAGMODE
 70
               2
  9
$LTSCALE
 40
5.0800000000000001
  9
$OSMODE
 70
               0
  9
$ATTMODE
 70
               1
  9
$TEXTSIZE
 40
0.2
  9
$TRACEWID
 40
1.0
  9
$TEXTSTYLE
  7
STANDARD
  9
$CLAYER
  8
__
  9
$CELTYPE
  6
CONTINUOUS
  9
$CECOLOR
 62
             256
  9
$DIMSCALE
 40
1.0
  9
$DIMASZ
 40
0.18
  9
$DIMEXO
 40
0.0625
  9
$DIMDLI
 40
0.38
  9
$DIMRND
 40
0.0
  9
$DIMDLE
 40
0.0
  9
$DIMEXE
 40
0.18
  9
$DIMTP
 40
0.0
  9
$DIMTM
 40
0.0
  9
$DIMTXT
 40
0.18
  9
$DIMCEN
 40
0.09
  9
$DIMTSZ
 40
0.0
  9
$DIMTOL
 70
               0
  9
$DIMLIM
 70
               0
  9
$DIMTIH
 70
               1
  9
$DIMTOH
 70
               1
  9
$DIMSE1
 70
               0
  9
$DIMSE2
 70
               0
  9
$DIMTAD
 70
               0
  9
$DIMZIN
 70
               0
  9
$DIMBLK
  1

  9
$LUNITS
 70
               2
  9
$LUPREC
 70
               4
  9
$AXISMODE
 70
               0
  9
$AXISUNIT
 10
0.0
 20
0.0
  9
$SKETCHINC
 40
0.1
  9
$FILLETRAD
 40
0.0
  9
$AUNITS
 70
               0
  9
$AUPREC
 70
               0
  9
$MENU
  1
acad
  9
$ELEVATION
 40
0.0
  9
$THICKNESS
 40
0.0
  9
$VIEWDIR
 10
0.0
 20
0.0
 30
1.0
  9
$LIMCHECK
 70
               0
  9
$BLIPMODE
 70
               0
  9
$CHAMFERA
 40
0.0
  9
$CHAMFERB
 40
0.0
  9
$FASTZOOM
 70
               0
  9
$SKPOLY
 70
               0
  9
$TDCREATE
 40
2455462.516157407
  9
$TDUPDATE
 40
2455462.516157407
  9
$TDINDWG
 40
0.0000000000
  9
$TDUSRTIMER
 40
0.0000000000
  9
$USRTIMER
 70
               1
  9
$ANGBASE
 50
0.0
  9
$ANGDIR
 70
               0
  9
$PDMODE
 70
               1
  9
$PDSIZE
 40
-2.0
  9
$PLINEWID
 40
0.0
  9
$COORDS
 70
               0
  9
$USERI1
 70
               0
  9
$USERI2
 70
               0
  9
$USERI3
 70
               0
  9
$USERI4
 70
               0
  9
$USERI5
 70
               0
  9
$USERR1
 40
0.0
  9
$USERR2
 40
0.0
  9
$USERR3
 40
0.0
  9
$USERR4
 40
0.0
  9
$USERR5
 40
0.0
  0
ENDSEC
  0
SECTION
  2
TABLES
  0
TABLE
  2
LTYPE
 70
              12
  0
LTYPE
  2
CONTINUOUS
 70
              64
  3
Solid line
 72
              65
 73
               0
 40
0.0
  0
LTYPE
  2
STYLE_01
 70
               0
  3

 72
              65
 73
               2
 40
0.41664
 49
0.20828
 49
-0.20836
  0
LTYPE
  2
STYLE_02
 70
               0
  3

 72
              65
 73
               2
 40
0.6944250000000001
 49
0.48607
 49
-0.2083550000000001
  0
LTYPE
  2
STYLE_03
 70
               0
  3

 72
              65
 73
               2
 40
1.25
 49
1.0416400000000001
 49
-0.2083599999999999
  0
LTYPE
  2
STYLE_04
 70
               0
  3

 72
              65
 73
               2
 40
1.5277099999999999
 49
1.3194249999999998
 49
-0.208285
  0
LTYPE
  2
STYLE_05
 70
               0
  3

 72
              65
 73
               2
 40
0.20828
 49
0.069425
 49
-0.138855
  0
LTYPE
  2
STYLE_06
 70
               0
  3

 72
              65
 73
               4
 40
1.0416400000000001
 49
0.625
 49
-0.20828
 49
0.06943
 49
-0.13893
  0
LTYPE
  2
STYLE_07
 70
               0
  3

 72
              65
 73
               6
 40
1.875
 49
0.625
 49
-0.20828
 49
0.6250000000000001
 49
-0.2083599999999999
 49
0.06943
 49
-0.1389299999999999
  0
LTYPE
  2
STYLE_08
 70
               0
  3

 72
              65
 73
               6
 40
1.25
 49
0.625
 49
-0.20828
 49
0.06943
 49
-0.13893
 49
0.0694299999999999
 49
-0.13893
  0
LTYPE
  2
STYLE_09
 70
               0
  3

 72
              65
 73
               4
 40
5.0
 49
3.75
 49
-0.2777849999999998
 49
0.6944300000000003
 49
-0.2777849999999998
  0
LTYPE
  2
STYLE_10
 70
               0
  3

 72
              65
 73
               6
 40
5.9375
 49
3.75
 49
-0.2777849999999998
 49
0.6944300000000003
 49
-0.2777849999999998
 49
0.625
 49
-0.3125
  0
LTYPE
  2
STYLE_11
 70
               0
  3

 72
              65
 73
               2
 40
0.3937007874015748
 49
0.2952755905511811
 49
-0.0984251968503937
  0
ENDTAB
  0
TABLE
  2
LAYER
 70
               4
  0
LAYER
  2
0
 70
               0
 62
               7
  6
CONTINUOUS
  0
LAYER
  2
__
 70
               0
 62
               7
  6
CONTINUOUS
  0
LAYER
  2
__-1
 70
               0
 62
               7
  6
CONTINUOUS
  0
LAYER
  2
___
 70
               0
 62
               4
  6
STYLE_11
  0
ENDTAB
  0
TABLE
  2
STYLE
 70
               1
  0
STYLE
  2
STANDARD
 70
               0
 40
0.0
 41
1.0
 50
0.0
 71
               0
 42
0.0
  3
txt
  4
BIGFONT.SHX
  0
ENDTAB
  0
TABLE
  2
VIEW
 70
               0
  0
ENDTAB
  0
ENDSEC
  0
SECTION
  2
BLOCKS
  0
ENDSEC
  0
SECTION
  2
ENTITIES
  0
POLYLINE
  8
__-1
  6
CONTINUOUS
 62
               4
 66
               1
 70
             128
  0
VERTEX
  8
__-1
  6
CONTINUOUS
 62
               4
 10
-84.698994673465222
 20
-127.89626103342397
  0
VERTEX
  8
__-1
  6
CONTINUOUS
 62
               4
 10
-68.812760186936885
 20
-133.81488469258255
  0
VERTEX
  8
__-1
  6
CONTINUOUS
 62
               4
 10
-68.812760186936885
 20
-133.81488469258255
 42
-0.1218680523115357
 70
               2
 50
153.78815090280403
  0
VERTEX
  8
__-1
  6
CONTINUOUS
 62
               4
 10
-68.41609558578989
 20
-134.08577597305674
  0
VERTEX
  8
__-1
  6
CONTINUOUS
 62
               4
 10
-68.41609558578989
 20
-134.08577597305674
 42
0.3909124437705726
 70
               2
 50
51.180526859390334
  0
VERTEX
  8
__-1
  6
CONTINUOUS
 62
               4
 10
-63.690820994437217
 20
-134.54278991262498
  0
VERTEX
  8
__-1
  6
CONTINUOUS
 62
               4
 10
-63.690820994437217
 20
-134.54278991262498
 42
0.3909124437705921
 70
               2
 50
-75.54460216817985
  0
VERTEX
  8
__-1
  6
CONTINUOUS
 62
               4
 10
-62.856691405004767
 20
-129.86932122944353
  0
VERTEX
  8
__-1
  6
CONTINUOUS
 62
               4
 10
-64.993149354516845
 20
-126.52639790394204
  0
VERTEX
  8
__-1
  6
CONTINUOUS
 62
               4
 10
-64.993149354516845
 20
-126.52639790394204
 42
0.2224001449332453
 70
               2
 50
36.617658167745816
  0
VERTEX
  8
__-1
  6
CONTINUOUS
 62
               4
 10
-65.70933581779741
 20
-126.07293713467806
  0
VERTEX
  8
__-1
  6
CONTINUOUS
 62
               4
 10
-70.600843615806525
 20
-125.44950317568208
  0
VERTEX
  8
__-1
  6
CONTINUOUS
 62
               4
 10
-70.600843615806525
 20
-125.44950317568208
 42
-0.3832880996234229
 70
               2
 50
449.5468176500803
  0
VERTEX
  8
__-1
  6
CONTINUOUS
 62
               4
 10
-71.474213227319069
 20
-124.43748810986307
  0
VERTEX
  8
__-1
  6
CONTINUOUS
 62
               4
 10
-71.464136874575161
 20
-123.93476403503672
  0
VERTEX
  8
__-1
  6
CONTINUOUS
 62
               4
 10
-71.464136874575161
 20
-123.93476403503672
 42
0.3832880996232654
 70
               2
 50
-1.1484082700967064
  0
VERTEX
  8
__-1
  6
CONTINUOUS
 62
               4
 10
-72.337506486087705
 20
-122.92274896921816
  0
VERTEX
  8
__-1
  6
CONTINUOUS
 62
               4
 10
-83.318191511080613
 20
-121.52323531815017
  0
VERTEX
  8
__-1
  6
CONTINUOUS
 62
               4
 10
-83.30918902188273
 20
-121.0740878767935
  0
VERTEX
  8
__-1
  6
CONTINUOUS
 62
               4
 10
-83.30918902188273
 20
-121.0740878767935
 42
0.1994318242627603
 70
               2
 50
-1.1484082701521976
  0
VERTEX
  8
__-1
  6
CONTINUOUS
 62
               4
 10
-83.589239390753391
 20
-120.35981383260668
  0
VERTEX
  8
__-1
  6
CONTINUOUS
 62
               4
 10
-83.589239390753391
 20
-120.35981383260668
 42
0.1994318242621122
 70
               2
 50
55.264711684849381
  0
VERTEX
  8
__-1
  6
CONTINUOUS
 62
               4
 10
-84.292945159982082
 20
-120.05417710435239
  0
VERTEX
  8
__-1
  6
CONTINUOUS
 62
               4
 10
-84.292945159982082
 20
-120.05417710435239
 42
0.166160191933642
 70
               2
 50
3570.9170181929153
  0
VERTEX
  8
__-1
  6
CONTINUOUS
 62
               4
 10
-95.315753945825236
 20
-123.62484604099308
  0
VERTEX
  8
__-1
  6
CONTINUOUS
 62
               4
 10
-95.315753945825236
 20
-123.62484604099308
 42
0.2293785258867729
 70
               2
 50
-76.541213751363628
  0
VERTEX
  8
__-1
  6
CONTINUOUS
 62
               4
 10
-95.716145428533764
 20
-124.39909710085129
  0
VERTEX
  8
__-1
  6
CONTINUOUS
 62
               4
 10
-95.784058361064808
 20
-126.980302428941
  0
VERTEX
  8
__-1
  6
CONTINUOUS
 62
               4
 10
-95.784058361064808
 20
-126.980302428941
 42
-0.1027836576472859
 70
               2
 50
-1.5074834868734852
  0
VERTEX
  8
__-1
  6
CONTINUOUS
 62
               4
 10
-95.87726460259978
 20
-127.37631921689916
  0
VERTEX
  8
__-1
  6
CONTINUOUS
 62
               4
 10
-95.87726460259978
 20
-127.37631921689916
 42
0.3974663682070564
 70
               2
 50
-26.694369091406262
  0
VERTEX
  8
__-1
  6
CONTINUOUS
 62
               4
 10
-94.65872674202069
 20
-131.04551802882378
  0
VERTEX
  8
__-1
  6
CONTINUOUS
 62
               4
 10
-94.65872674202069
 20
-131.04551802882378
 42
0.3974663682052697
 70
               2
 50
106.5148804101435
  0
VERTEX
  8
__-1
  6
CONTINUOUS
 62
               4
 10
-90.925549388760146
 20
-130.03991309234124
  0
VERTEX
  8
__-1
  6
CONTINUOUS
 62
               4
 10
-90.925549388760146
 20
-130.03991309234124
 42
-0.3604174221420438
 70
               2
 50
-35.209703455841456
  0
VERTEX
  8
__-1
  6
CONTINUOUS
 62
               4
 10
-84.663566938827444
 20
-127.90960761775358
  0
SEQEND
  8
__-1
  6
CONTINUOUS
 62
               4
  0
CIRCLE
  8
__-1
  6
CONTINUOUS
 62
               4
 10
-65.805847549259852
 20
-131.75412308555559
 40
2.499999999999972
  0
CIRCLE
  8
__-1
  6
CONTINUOUS
 62
               4
 10
-93.324723980346789
 20
-128.56555971716415
 40
1.5
  0
CIRCLE
  8
___
  6
CONTINUOUS
 62
               4
 10
-43.534195784500483
 20
-125.49354710474563
 40
14.0
  0
CIRCLE
  8
___
  6
CONTINUOUS
 62
               4
 10
-43.534195784500483
 20
-125.49354710474563
 40
1.4499999999998181
  0
CIRCLE
  8
___
  6
CONTINUOUS
 62
               4
 10
-40.534195784500483
 20
-118.49354710474563
 40
1.5
  0
CIRCLE
  8
___
  6
CONTINUOUS
 62
               4
 10
-46.534195784500483
 20
-118.49354710474563
 40
1.5
  0
POLYLINE
  8
___
  6
CONTINUOUS
 62
               4
 66
               1
 70
             129
  0
VERTEX
  8
___
  6
CONTINUOUS
 62
               4
 10
-31.959603378117848
 20
-122.32671736095244
  0
VERTEX
  8
___
  6
CONTINUOUS
 62
               4
 10
-31.959603378117848
 20
-122.32671736095244
 42
0.1289745303461489
 70
               2
 50
15.67623052155707
  0
VERTEX
  8
___
  6
CONTINUOUS
 62
               4
 10
-35.004344573723486
 20
-117.05307091426494
  0
VERTEX
  8
___
  6
CONTINUOUS
 62
               4
 10
-35.004344573723486
 20
-117.05307091426494
 42
0.3146854181380909
 70
               2
 50
56.695439445138966
  0
VERTEX
  8
___
  6
CONTINUOUS
 62
               4
 10
-36.356302267606409
 20
-116.80577698659863
  0
VERTEX
  8
___
  6
CONTINUOUS
 62
               4
 10
-36.356302267606409
 20
-116.80577698659863
 42
0.3146854181376566
 70
               2
 50
-125.3160354732639
  0
VERTEX
  8
___
  6
CONTINUOUS
 62
               4
 10
-37.053724410078942
 20
-117.99006844054929
  0
VERTEX
  8
___
  6
CONTINUOUS
 62
               4
 10
-37.053724410078942
 20
-117.99006844054929
 42
-0.1155978102257625
 70
               2
 50
4.4514049776162885
  0
VERTEX
  8
___
  6
CONTINUOUS
 62
               4
 10
-37.504679327452507
 20
-120.92149506427677
  0
VERTEX
  8
___
  6
CONTINUOUS
 62
               4
 10
-37.504679327452507
 20
-120.92149506427677
 42
0.2305626543268374
 70
               2
 50
-23.071696038888646
  0
VERTEX
  8
___
  6
CONTINUOUS
 62
               4
 10
-37.430768312231251
 20
-121.96973161065125
  0
VERTEX
  8
___
  6
CONTINUOUS
 62
               4
 10
-37.430768312231251
 20
-121.96973161065125
 42
0.2305626543262912
 70
               2
 50
33.079733725352185
  0
VERTEX
  8
___
  6
CONTINUOUS
 62
               4
 10
-36.559924341506488
 20
-122.55785870064028
  0
VERTEX
  8
___
  6
CONTINUOUS
 62
               4
 10
-36.559924341506488
 20
-122.55785870064028
 42
-0.1155978102257975
 70
               2
 50
404.27624658768462
  0
VERTEX
  8
___
  6
CONTINUOUS
 62
               4
 10
-33.795756957341112
 20
-123.63303359809697
  0
VERTEX
  8
___
  6
CONTINUOUS
 62
               4
 10
-33.795756957341112
 20
-123.63303359809697
 42
0.3146854181384149
 70
               2
 50
83.54542832999995
  0
VERTEX
  8
___
  6
CONTINUOUS
 62
               4
 10
-32.421419401498682
 20
-123.62119403253109
  0
VERTEX
  8
___
  6
CONTINUOUS
 62
               4
 10
-32.421419401498682
 20
-123.62119403253109
 42
0.314685418138288
 70
               2
 50
-80.534749271163903
  0
VERTEX
  8
___
  6
CONTINUOUS
 62
               4
 10
-31.959603378117848
 20
-122.32671736095244
  0
SEQEND
  8
___
  6
CONTINUOUS
 62
               4
  0
POLYLINE
  8
___
  6
CONTINUOUS
 62
               4
 66
               1
 70
             129
  0
VERTEX
  8
___
  6
CONTINUOUS
 62
               4
 10
-42.589440798553554
 20
-133.00128754931893
  0
VERTEX
  8
___
  6
CONTINUOUS
 62
               4
 10
-42.589440798553554
 20
-133.00128754931893
 42
0.1155978102256943
 70
               2
 50
44.871533975777737
  0
VERTEX
  8
___
  6
CONTINUOUS
 62
               4
 10
-40.276228331763107
 20
-134.85753927559063
  0
VERTEX
  8
___
  6
CONTINUOUS
 62
               4
 10
-40.276228331763107
 20
-134.85753927559063
 42
-0.314685418138345
 70
               2
 50
119.81340830609793
  0
VERTEX
  8
___
  6
CONTINUOUS
 62
               4
 10
-39.599312918392755
 20
-136.05367029510808
  0
VERTEX
  8
___
  6
CONTINUOUS
 62
               4
 10
-39.599312918392755
 20
-136.05367029510808
 42
-0.3146854181383572
 70
               2
 50
-5.4459455534692838
  0
VERTEX
  8
___
  6
CONTINUOUS
 62
               4
 10
-40.489454588894844
 20
-137.10085303901951
  0
VERTEX
  8
___
  6
CONTINUOUS
 62
               4
 10
-40.489454588894844
 20
-137.10085303901951
 42
-0.1289745303461467
 70
               2
 50
-218.42567194534325
  0
VERTEX
  8
___
  6
CONTINUOUS
 62
               4
 10
-46.578936980107031
 20
-137.10085303901951
  0
VERTEX
  8
___
  6
CONTINUOUS
 62
               4
 10
-46.578936980107031
 20
-137.10085303901951
 42
-0.3146854181383104
 70
               2
 50
218.4256719451698
  0
VERTEX
  8
___
  6
CONTINUOUS
 62
               4
 10
-47.46907865061003
 20
-136.05367029510808
  0
VERTEX
  8
___
  6
CONTINUOUS
 62
               4
 10
-47.46907865061003
 20
-136.05367029510808
 42
-0.3146854181381928
 70
               2
 50
5.4459455534539618
  0
VERTEX
  8
___
  6
CONTINUOUS
 62
               4
 10
-46.792163237238768
 20
-134.85753927559063
  0
VERTEX
  8
___
  6
CONTINUOUS
 62
               4
 10
-46.792163237238768
 20
-134.85753927559063
 42
0.1155978102257712
 70
               2
 50
-119.81340830629
  0
VERTEX
  8
___
  6
CONTINUOUS
 62
               4
 10
-44.478950770446957
 20
-133.00128754931893
  0
VERTEX
  8
___
  6
CONTINUOUS
 62
               4
 10
-44.478950770446957
 20
-133.00128754931893
 42
-0.230562654326669
 70
               2
 50
-44.871533975878954
  0
VERTEX
  8
___
  6
CONTINUOUS
 62
               4
 10
-43.534195784500028
 20
-132.54117809293302
  0
VERTEX
  8
___
  6
CONTINUOUS
 62
               4
 10
-43.534195784500028
 20
-132.54117809293302
 42
-0.2305626543268483
 70
               2
 50
-387603807304082.75
  0
VERTEX
  8
___
  6
CONTINUOUS
 62
               4
 10
-42.589440798553554
 20
-133.00128754931893
  0
SEQEND
  8
___
  6
CONTINUOUS
 62
               4
  0
POLYLINE
  8
___
  6
CONTINUOUS
 62
               4
 66
               1
 70
             129
  0
VERTEX
  8
___
  6
CONTINUOUS
 62
               4
 10
-55.108788190883573
 20
-122.32671736095199
  0
VERTEX
  8
___
  6
CONTINUOUS
 62
               4
 10
-55.108788190883573
 20
-122.32671736095199
 42
0.3146854181383756
 70
               2
 50
-15.676230521536848
  0
VERTEX
  8
___
  6
CONTINUOUS
 62
               4
 10
-54.646972167502739
 20
-123.62119403253018
  0
VERTEX
  8
___
  6
CONTINUOUS
 62
               4
 10
-54.646972167502739
 20
-123.62119403253018
 42
0.314685418138258
 70
               2
 50
80.534749271163847
  0
VERTEX
  8
___
  6
CONTINUOUS
 62
               4
 10
-53.272634611659853
 20
-123.63303359809697
  0
VERTEX
  8
___
  6
CONTINUOUS
 62
               4
 10
-53.272634611659853
 20
-123.63303359809697
 42
-0.1155978102257714
 70
               2
 50
-83.545428329998032
  0
VERTEX
  8
___
  6
CONTINUOUS
 62
               4
 10
-50.508467227495387
 20
-122.55785870064028
  0
VERTEX
  8
___
  6
CONTINUOUS
 62
               4
 10
-50.508467227495387
 20
-122.55785870064028
 42
0.2305626543266812
 70
               2
 50
-404.27624658735124
  0
VERTEX
  8
___
  6
CONTINUOUS
 62
               4
 10
-49.637623256770169
 20
-121.96973161065216
  0
VERTEX
  8
___
  6
CONTINUOUS
 62
               4
 10
-49.637623256770169
 20
-121.96973161065216
 42
0.2305626543264732
 70
               2
 50
-33.079733725270927
  0
VERTEX
  8
___
  6
CONTINUOUS
 62
               4
 10
-49.563712241548458
 20
-120.92149506427722
  0
VERTEX
  8
___
  6
CONTINUOUS
 62
               4
 10
-49.563712241548458
 20
-120.92149506427722
 42
-0.1155978102257033
 70
               2
 50
23.071696038888984
  0
VERTEX
  8
___
  6
CONTINUOUS
 62
               4
 10
-50.014667158922478
 20
-117.99006844054929
  0
VERTEX
  8
___
  6
CONTINUOUS
 62
               4
 10
-50.014667158922478
 20
-117.99006844054929
 42
0.3146854181383646
 70
               2
 50
-4.4514049776240476
  0
VERTEX
  8
___
  6
CONTINUOUS
 62
               4
 10
-50.712089301393192
 20
-116.80577698659772
  0
VERTEX
  8
___
  6
CONTINUOUS
 62
               4
 10
-50.712089301393192
 20
-116.80577698659772
 42
0.3146854181383785
 70
               2
 50
125.31603547335446
  0
VERTEX
  8
___
  6
CONTINUOUS
 62
               4
 10
-52.064046995277025
 20
-117.05307091426448
  0
VERTEX
  8
___
  6
CONTINUOUS
 62
               4
 10
-52.064046995277025
 20
-117.05307091426448
 42
0.1289745303461408
 70
               2
 50
-56.695439445031568
  0
VERTEX
  8
___
  6
CONTINUOUS
 62
               4
 10
-55.108788190883573
 20
-122.32671736095199
  0
SEQEND
  8
___
  6
CONTINUOUS
 62
               4
  0
CIRCLE
  8
___
  6
CONTINUOUS
 62
               4
 10
-51.096373610991762
 20
-126.39547089339203
 40
1.25
  0
CIRCLE
  8
___
  6
CONTINUOUS
 62
               4
 10
-35.972017958009204
 20
-126.39547089339248
 40
1.25
  0
CIRCLE
  8
___
  6
CONTINUOUS
 62
               4
 10
-38.972017958009204
 20
-131.59162331609878
 40
1.25
  0
CIRCLE
  8
___
  6
CONTINUOUS
 62
               4
 10
-48.096373610991762
 20
-131.59162331609878
 40
1.25
  0
CIRCLE
  8
___
  6
CONTINUOUS
 62
               4
 10
-5.9606678916550493
 20
-124.63240472727739
 40
1.2499999999994156
  0
CIRCLE
  8
___
  6
CONTINUOUS
 62
               4
 10
-8.9606678916841531
 20
-119.43625230458747
 40
1.2500000000002032
  0
CIRCLE
  8
___
  6
CONTINUOUS
 62
               4
 10
-18.085023544666711
 20
-119.43625230463795
 40
1.250000000000199
  0
CIRCLE
  8
___
  6
CONTINUOUS
 62
               4
 10
-21.085023544637153
 20
-124.63240472736152
 40
1.2499999999999716
  0
CIRCLE
  8
___
  6
CONTINUOUS
 62
               4
 10
-16.522845718101763
 20
-132.53432851598291
 40
1.25
  0
CIRCLE
  8
___
  6
CONTINUOUS
 62
               4
 10
-10.522845718102218
 20
-132.53432851594926
 40
1.2499999999995453
  0
CIRCLE
  8
__-1
  6
CONTINUOUS
 62
               4
 10
-13.522845718140871
 20
-125.53432851596563
 40
4.0250000000003574
  0
POLYLINE
  8
__-1
  6
CONTINUOUS
 62
               4
 66
               1
 70
             129
  0
VERTEX
  8
__-1
  6
CONTINUOUS
 62
               4
 10
-24.364565292034314
 20
-123.17240196888861
  0
VERTEX
  8
__-1
  6
CONTINUOUS
 62
               4
 10
-24.364565292034314
 20
-123.17240196888861
 42
0.2679491924316184
 70
               2
 50
-33.079733725326079
  0
VERTEX
  8
__-1
  6
CONTINUOUS
 62
               4
 10
-24.364565292028857
 20
-125.17240196889861
  0
VERTEX
  8
__-1
  6
CONTINUOUS
 62
               4
 10
-18.63026792093595
 20
-135.10449636121166
  0
VERTEX
  8
__-1
  6
CONTINUOUS
 62
               4
 10
-18.63026792093595
 20
-135.10449636121166
 42
0.2679491924321996
 70
               2
 50
33.079733725730144
  0
VERTEX
  8
__-1
  6
CONTINUOUS
 62
               4
 10
-16.8982171133637
 20
-136.1044963611962
  0
VERTEX
  8
__-1
  6
CONTINUOUS
 62
               4
 10
-10.147474322802992
 20
-136.10449636115527
  0
VERTEX
  8
__-1
  6
CONTINUOUS
 62
               4
 10
-10.147474322802992
 20
-136.10449636115527
 42
0.2679491924315992
 70
               2
 50
-9699491631648.8984
  0
VERTEX
  8
__-1
  6
CONTINUOUS
 62
               4
 10
-8.4154235152384729
 20
-135.10449636114208
  0
VERTEX
  8
__-1
  6
CONTINUOUS
 62
               4
 10
-2.6811261442246916
 20
-125.1724019686535
  0
VERTEX
  8
__-1
  6
CONTINUOUS
 62
               4
 10
-2.6811261442246916
 20
-125.1724019686535
 42
0.2679491924302537
 70
               2
 50
-33.079733724679798
  0
VERTEX
  8
__-1
  6
CONTINUOUS
 62
               4
 10
-2.6811261442378793
 20
-123.1724019686576
  0
VERTEX
  8
__-1
  6
CONTINUOUS
 62
               4
 10
-6.0564975394998157
 20
-117.32608721772567
  0
VERTEX
  8
__-1
  6
CONTINUOUS
 62
               4
 10
-6.0564975394998157
 20
-117.32608721772567
 42
0.2679491924282809
 70
               2
 50
33.079733725724282
  0
VERTEX
  8
__-1
  6
CONTINUOUS
 62
               4
 10
-7.7885483471102646
 20
-116.32608721770202
  0
VERTEX
  8
__-1
  6
CONTINUOUS
 62
               4
 10
-19.257143089218317
 20
-116.32608721786391
  0
VERTEX
  8
__-1
  6
CONTINUOUS
 62
               4
 10
-19.257143089218317
 20
-116.32608721786391
 42
0.2679491924271877
 70
               2
 50
-4041954352468.0898
  0
VERTEX
  8
__-1
  6
CONTINUOUS
 62
               4
 10
-20.98919389675828
 20
-117.32608721786301
  0
SEQEND
  8
__-1
  6
CONTINUOUS
 62
               4
  0
ENDSEC
  0
EOF
