  0
SECTION
  2
HEADER
  9
$ACADVER
  1
AC1002
  9
$INSBASE
 10
0.0
 20
0.0
  9
$EXTMIN
 10
-82.0
 20
-117.97869311984687
  9
$EXTMAX
 10
-34.021306880153134
 20
-70.0
  9
$LIMMIN
 10
0.0
 20
0.0
  9
$LIMMAX
 10
0.0
 20
0.0
  9
$VIEWCTR
 10
6.5912879999999996
 20
4.5791839999999997
  9
$VIEWSIZE
 40
9.1583690000000004
  9
$SNAPMODE
 70
               0
  9
$SNAPUNIT
 10
1.0
 20
1.0
  9
$SNAPBASE
 10
0.0
 20
0.0
  9
$SNAPANG
 50
0.0
  9
$SNAPSTYLE
 70
               0
  9
$SNAPISOPAIR
 70
               0
  9
$GRIDMODE
 70
               0
  9
$GRIDUNIT
 10
0.0
 20
0.0
  9
$ORTHOMODE
 70
               0
  9
$REGENMODE
 70
               1
  9
$FILLMODE
 70
               1
  9
$QTEXTMODE
 70
               0
  9
$DRAGMODE
 70
               2
  9
$LTSCALE
 40
5.0800000000000001
  9
$OSMODE
 70
               0
  9
$ATTMODE
 70
               1
  9
$TEXTSIZE
 40
0.2
  9
$TRACEWID
 40
1.0
  9
$TEXTSTYLE
  7
STANDARD
  9
$CLAYER
  8
__
  9
$CELTYPE
  6
CONTINUOUS
  9
$CECOLOR
 62
             256
  9
$DIMSCALE
 40
1.0
  9
$DIMASZ
 40
0.18
  9
$DIMEXO
 40
0.0625
  9
$DIMDLI
 40
0.38
  9
$DIMRND
 40
0.0
  9
$DIMDLE
 40
0.0
  9
$DIMEXE
 40
0.18
  9
$DIMTP
 40
0.0
  9
$DIMTM
 40
0.0
  9
$DIMTXT
 40
0.18
  9
$DIMCEN
 40
0.09
  9
$DIMTSZ
 40
0.0
  9
$DIMTOL
 70
               0
  9
$DIMLIM
 70
               0
  9
$DIMTIH
 70
               1
  9
$DIMTOH
 70
               1
  9
$DIMSE1
 70
               0
  9
$DIMSE2
 70
               0
  9
$DIMTAD
 70
               0
  9
$DIMZIN
 70
               0
  9
$DIMBLK
  1

  9
$LUNITS
 70
               2
  9
$LUPREC
 70
               4
  9
$AXISMODE
 70
               0
  9
$AXISUNIT
 10
0.0
 20
0.0
  9
$SKETCHINC
 40
0.1
  9
$FILLETRAD
 40
0.0
  9
$AUNITS
 70
               0
  9
$AUPREC
 70
               0
  9
$MENU
  1
acad
  9
$ELEVATION
 40
0.0
  9
$THICKNESS
 40
0.0
  9
$VIEWDIR
 10
0.0
 20
0.0
 30
1.0
  9
$LIMCHECK
 70
               0
  9
$BLIPMODE
 70
               0
  9
$CHAMFERA
 40
0.0
  9
$CHAMFERB
 40
0.0
  9
$FASTZOOM
 70
               0
  9
$SKPOLY
 70
               0
  9
$TDCREATE
 40
2455462.517766204
  9
$TDUPDATE
 40
2455462.517766204
  9
$TDINDWG
 40
0.0000000000
  9
$TDUSRTIMER
 40
0.0000000000
  9
$USRTIMER
 70
               1
  9
$ANGBASE
 50
0.0
  9
$ANGDIR
 70
               0
  9
$PDMODE
 70
               1
  9
$PDSIZE
 40
-2.0
  9
$PLINEWID
 40
0.0
  9
$COORDS
 70
               0
  9
$USERI1
 70
               0
  9
$USERI2
 70
               0
  9
$USERI3
 70
               0
  9
$USERI4
 70
               0
  9
$USERI5
 70
               0
  9
$USERR1
 40
0.0
  9
$USERR2
 40
0.0
  9
$USERR3
 40
0.0
  9
$USERR4
 40
0.0
  9
$USERR5
 40
0.0
  0
ENDSEC
  0
SECTION
  2
TABLES
  0
TABLE
  2
LTYPE
 70
              12
  0
LTYPE
  2
CONTINUOUS
 70
              64
  3
Solid line
 72
              65
 73
               0
 40
0.0
  0
LTYPE
  2
STYLE_01
 70
               0
  3

 72
              65
 73
               2
 40
0.41664
 49
0.20828
 49
-0.20836
  0
LTYPE
  2
STYLE_02
 70
               0
  3

 72
              65
 73
               2
 40
0.6944250000000001
 49
0.48607
 49
-0.2083550000000001
  0
LTYPE
  2
STYLE_03
 70
               0
  3

 72
              65
 73
               2
 40
1.25
 49
1.0416400000000001
 49
-0.2083599999999999
  0
LTYPE
  2
STYLE_04
 70
               0
  3

 72
              65
 73
               2
 40
1.5277099999999999
 49
1.3194249999999998
 49
-0.208285
  0
LTYPE
  2
STYLE_05
 70
               0
  3

 72
              65
 73
               2
 40
0.20828
 49
0.069425
 49
-0.138855
  0
LTYPE
  2
STYLE_06
 70
               0
  3

 72
              65
 73
               4
 40
1.0416400000000001
 49
0.625
 49
-0.20828
 49
0.06943
 49
-0.13893
  0
LTYPE
  2
STYLE_07
 70
               0
  3

 72
              65
 73
               6
 40
1.875
 49
0.625
 49
-0.20828
 49
0.6250000000000001
 49
-0.2083599999999999
 49
0.06943
 49
-0.1389299999999999
  0
LTYPE
  2
STYLE_08
 70
               0
  3

 72
              65
 73
               6
 40
1.25
 49
0.625
 49
-0.20828
 49
0.06943
 49
-0.13893
 49
0.0694299999999999
 49
-0.13893
  0
LTYPE
  2
STYLE_09
 70
               0
  3

 72
              65
 73
               4
 40
5.0
 49
3.75
 49
-0.2777849999999998
 49
0.6944300000000003
 49
-0.2777849999999998
  0
LTYPE
  2
STYLE_10
 70
               0
  3

 72
              65
 73
               6
 40
5.9375
 49
3.75
 49
-0.2777849999999998
 49
0.6944300000000003
 49
-0.2777849999999998
 49
0.625
 49
-0.3125
  0
LTYPE
  2
STYLE_11
 70
               0
  3

 72
              65
 73
               2
 40
0.3937007874015748
 49
0.2952755905511811
 49
-0.0984251968503937
  0
ENDTAB
  0
TABLE
  2
LAYER
 70
               4
  0
LAYER
  2
0
 70
               0
 62
               7
  6
CONTINUOUS
  0
LAYER
  2
__
 70
               0
 62
               7
  6
CONTINUOUS
  0
LAYER
  2
__-1
 70
               0
 62
               7
  6
CONTINUOUS
  0
LAYER
  2
___
 70
               0
 62
               4
  6
STYLE_11
  0
ENDTAB
  0
TABLE
  2
STYLE
 70
               1
  0
STYLE
  2
STANDARD
 70
               0
 40
0.0
 41
1.0
 50
0.0
 71
               0
 42
0.0
  3
txt
  4
BIGFONT.SHX
  0
ENDTAB
  0
TABLE
  2
VIEW
 70
               0
  0
ENDTAB
  0
ENDSEC
  0
SECTION
  2
BLOCKS
  0
ENDSEC
  0
SECTION
  2
ENTITIES
  0
POLYLINE
  8
___
  6
CONTINUOUS
 62
               4
 66
               1
 70
             129
  0
VERTEX
  8
___
  6
CONTINUOUS
 62
               4
 10
-62.214177658115659
 20
-76.011977245479557
  0
VERTEX
  8
___
  6
CONTINUOUS
 62
               4
 10
-62.214177658115659
 20
-76.011977245479557
 42
0.1717579160611488
 70
               2
 50
10.70002750925228
  0
VERTEX
  8
___
  6
CONTINUOUS
 62
               4
 10
-63.933024691481478
 20
-73.043228311928942
  0
VERTEX
  8
___
  6
CONTINUOUS
 62
               4
 10
-63.933024691481478
 20
-73.043228311928942
 42
0.2606584291374079
 70
               2
 50
67.231473417422265
  0
VERTEX
  8
___
  6
CONTINUOUS
 62
               4
 10
-64.411846851478913
 20
-72.948253135240975
  0
VERTEX
  8
___
  6
CONTINUOUS
 62
               4
 10
-65.199623592669013
 20
-73.204217314687867
  0
VERTEX
  8
___
  6
CONTINUOUS
 62
               4
 10
-65.199623592669013
 20
-73.204217314687867
 42
0.2606584287502766
 70
               2
 50
-176.33827735774622
  0
VERTEX
  8
___
  6
CONTINUOUS
 62
               4
 10
-65.53117384957568
 20
-73.562498450671683
  0
VERTEX
  8
___
  6
CONTINUOUS
 62
               4
 10
-65.53117384957568
 20
-73.562498450671683
 42
0.1717579160749064
 70
               2
 50
-13.820891411685515
  0
VERTEX
  8
___
  6
CONTINUOUS
 62
               4
 10
-65.17676346945791
 20
-76.974579727372657
  0
VERTEX
  8
___
  6
CONTINUOUS
 62
               4
 10
-65.17676346945791
 20
-76.974579727372657
 42
-0.4061688201436882
 70
               2
 50
27.232785157098974
  0
VERTEX
  8
___
  6
CONTINUOUS
 62
               4
 10
-65.778666478456216
 20
-78.743762563899963
  0
VERTEX
  8
___
  6
CONTINUOUS
 62
               4
 10
-65.778666478456216
 20
-78.743762563899963
 42
-0.4061688201448034
 70
               2
 50
-112.44929879372565
  0
VERTEX
  8
___
  6
CONTINUOUS
 62
               4
 10
-67.563755171365301
 20
-78.190812747218388
  0
VERTEX
  8
___
  6
CONTINUOUS
 62
               4
 10
-67.563755171365301
 20
-78.190812747218388
 42
0.1717579160608524
 70
               2
 50
31.210368217617358
  0
VERTEX
  8
___
  6
CONTINUOUS
 62
               4
 10
-70.115869715461486
 20
-75.8985176727615
  0
VERTEX
  8
___
  6
CONTINUOUS
 62
               4
 10
-70.115869715461486
 20
-75.8985176727615
 42
0.2606584291407196
 70
               2
 50
138.74742921375156
  0
VERTEX
  8
___
  6
CONTINUOUS
 62
               4
 10
-70.600605594514491
 20
-75.956155096808743
  0
VERTEX
  8
___
  6
CONTINUOUS
 62
               4
 10
-71.270728516208692
 20
-76.443027898410492
  0
VERTEX
  8
___
  6
CONTINUOUS
 62
               4
 10
-71.270728516208692
 20
-76.443027898410492
 42
0.2606584287503609
 70
               2
 50
-78.860875041021984
  0
VERTEX
  8
___
  6
CONTINUOUS
 62
               4
 10
-71.475336588735445
 20
-76.88622817132773
  0
VERTEX
  8
___
  6
CONTINUOUS
 62
               4
 10
-71.475336588735445
 20
-76.88622817132773
 42
0.1717579160751236
 70
               2
 50
4.4470859459770749
  0
VERTEX
  8
___
  6
CONTINUOUS
 62
               4
 10
-70.083881186593317
 20
-80.021791473223402
  0
VERTEX
  8
___
  6
CONTINUOUS
 62
               4
 10
-70.083881186593317
 20
-80.021791473223402
 42
-0.4061688201435176
 70
               2
 50
54.223279457713915
  0
VERTEX
  8
___
  6
CONTINUOUS
 62
               4
 10
-70.109617402836193
 20
-81.890382597166081
  0
VERTEX
  8
___
  6
CONTINUOUS
 62
               4
 10
-70.109617402836193
 20
-81.890382597166081
 42
-0.406168820145385
 70
               2
 50
-57.295779513053141
  0
VERTEX
  8
___
  6
CONTINUOUS
 62
               4
 10
-71.978208526783419
 20
-81.916118813402591
  0
VERTEX
  8
___
  6
CONTINUOUS
 62
               4
 10
-71.978208526783419
 20
-81.916118813402591
 42
0.1717579160608321
 70
               2
 50
60.542379265880129
  0
VERTEX
  8
___
  6
CONTINUOUS
 62
               4
 10
-75.113771828406243
 20
-80.524663411285928
  0
VERTEX
  8
___
  6
CONTINUOUS
 62
               4
 10
-75.113771828406243
 20
-80.524663411285928
 42
0.2606584291397653
 70
               2
 50
738.19268191566778
  0
VERTEX
  8
___
  6
CONTINUOUS
 62
               4
 10
-75.556972101318934
 20
-80.72927148341978
  0
VERTEX
  8
___
  6
CONTINUOUS
 62
               4
 10
-76.043844902921592
 20
-81.399394405113981
  0
VERTEX
  8
___
  6
CONTINUOUS
 62
               4
 10
-76.043844902921592
 20
-81.399394405113981
 42
0.2606584287496599
 70
               2
 50
-41.62782049134136
  0
VERTEX
  8
___
  6
CONTINUOUS
 62
               4
 10
-76.101482327341728
 20
-81.884130284291587
  0
VERTEX
  8
___
  6
CONTINUOUS
 62
               4
 10
-76.101482327341728
 20
-81.884130284291587
 42
0.1717579160748849
 70
               2
 50
23.660303891096252
  0
VERTEX
  8
___
  6
CONTINUOUS
 62
               4
 10
-73.8091872527757
 20
-84.436244828639701
  0
VERTEX
  8
___
  6
CONTINUOUS
 62
               4
 10
-73.8091872527757
 20
-84.436244828639701
 42
-0.4061688201436846
 70
               2
 50
105.18319832301128
  0
VERTEX
  8
___
  6
CONTINUOUS
 62
               4
 10
-73.256237436101401
 20
-86.221333521544693
  0
VERTEX
  8
___
  6
CONTINUOUS
 62
               4
 10
-73.256237436101401
 20
-86.221333521544693
 42
-0.4061688201453211
 70
               2
 50
-29.193657810513578
  0
VERTEX
  8
___
  6
CONTINUOUS
 62
               4
 10
-75.025420272634619
 20
-86.823236530539361
  0
VERTEX
  8
___
  6
CONTINUOUS
 62
               4
 10
-75.025420272634619
 20
-86.823236530539361
 42
0.1717579160609218
 70
               2
 50
120.54611127816882
  0
VERTEX
  8
___
  6
CONTINUOUS
 62
               4
 10
-78.437501549068656
 20
-86.468826150362474
  0
VERTEX
  8
___
  6
CONTINUOUS
 62
               4
 10
-78.437501549068656
 20
-86.468826150362474
 42
0.2606584291407209
 70
               2
 50
-237.52493734039561
  0
VERTEX
  8
___
  6
CONTINUOUS
 62
               4
 10
-78.795782685169797
 20
-86.80037640689352
  0
VERTEX
  8
___
  6
CONTINUOUS
 62
               4
 10
-79.051746864616689
 20
-87.58815314808362
  0
VERTEX
  8
___
  6
CONTINUOUS
 62
               4
 10
-79.051746864616689
 20
-87.58815314808362
 42
0.2606584287490615
 70
               2
 50
-18.616527274775365
  0
VERTEX
  8
___
  6
CONTINUOUS
 62
               4
 10
-78.956771688245681
 20
-88.066975308315705
  0
VERTEX
  8
___
  6
CONTINUOUS
 62
               4
 10
-78.956771688245681
 20
-88.066975308315705
 42
0.1717579160752049
 70
               2
 50
48.828415852469334
  0
VERTEX
  8
___
  6
CONTINUOUS
 62
               4
 10
-75.988022754513622
 20
-89.78582234188525
  0
VERTEX
  8
___
  6
CONTINUOUS
 62
               4
 10
-75.988022754513622
 20
-89.78582234188525
 42
-0.4061688201439972
 70
               2
 50
306.80354298879575
  0
VERTEX
  8
___
  6
CONTINUOUS
 62
               4
 10
-74.910513485605406
 20
-91.312671685050191
  0
VERTEX
  8
___
  6
CONTINUOUS
 62
               4
 10
-74.910513485605406
 20
-91.312671685050191
 42
-0.406168820145591
 70
               2
 50
-9.0747599711163076
  0
VERTEX
  8
___
  6
CONTINUOUS
 62
               4
 10
-76.407108092063936
 20
-92.431823026577149
  0
VERTEX
  8
___
  6
CONTINUOUS
 62
               4
 10
-76.407108092063936
 20
-92.431823026577149
 42
0.1717579160609909
 70
               2
 50
439.84131966082043
  0
VERTEX
  8
___
  6
CONTINUOUS
 62
               4
 10
-79.761709054601852
 20
-93.149149825673703
  0
VERTEX
  8
___
  6
CONTINUOUS
 62
               4
 10
-79.761709054601852
 20
-93.149149825673703
 42
0.2606584291389694
 70
               2
 50
-93.272198540362723
  0
VERTEX
  8
___
  6
CONTINUOUS
 62
               4
 10
-80.0
 20
-93.575187817446022
  0
VERTEX
  8
___
  6
CONTINUOUS
 62
               4
 10
-80.0
 20
-94.40350530194064
  0
VERTEX
  8
___
  6
CONTINUOUS
 62
               4
 10
-80.0
 20
-94.40350530194064
 42
0.2606584287499923
 70
               2
  0
VERTEX
  8
___
  6
CONTINUOUS
 62
               4
 10
-79.761709054830135
 20
-94.829543294034011
  0
VERTEX
  8
___
  6
CONTINUOUS
 62
               4
 10
-79.761709054830135
 20
-94.829543294034011
 42
0.1717579160751818
 70
               2
 50
93.272198300372054
  0
VERTEX
  8
___
  6
CONTINUOUS
 62
               4
 10
-76.407108092055751
 20
-95.546870093269717
  0
VERTEX
  8
___
  6
CONTINUOUS
 62
               4
 10
-76.407108092055751
 20
-95.546870093269717
 42
-0.4061688201436008
 70
               2
 50
-439.84131968177627
  0
VERTEX
  8
___
  6
CONTINUOUS
 62
               4
 10
-74.910513485605406
 20
-96.66602143479804
  0
VERTEX
  8
___
  6
CONTINUOUS
 62
               4
 10
-74.910513485605406
 20
-96.66602143479804
 42
-0.4061688201452467
 70
               2
 50
9.0747599711345881
  0
VERTEX
  8
___
  6
CONTINUOUS
 62
               4
 10
-75.988022754519989
 20
-98.19287077796298
  0
VERTEX
  8
___
  6
CONTINUOUS
 62
               4
 10
-75.988022754519989
 20
-98.19287077796298
 42
0.1717579160610081
 70
               2
 50
-306.80354299753947
  0
VERTEX
  8
___
  6
CONTINUOUS
 62
               4
 10
-78.956771688070148
 20
-99.91171781132789
  0
VERTEX
  8
___
  6
CONTINUOUS
 62
               4
 10
-78.956771688070148
 20
-99.91171781132789
 42
0.2606584291399355
 70
               2
 50
-48.828415966224391
  0
VERTEX
  8
___
  6
CONTINUOUS
 62
               4
 10
-79.05174686475857
 20
-100.39053997132578
  0
VERTEX
  8
___
  6
CONTINUOUS
 62
               4
 10
-78.795782685311679
 20
-101.17831671251588
  0
VERTEX
  8
___
  6
CONTINUOUS
 62
               4
 10
-78.795782685311679
 20
-101.17831671251588
 42
0.2606584287487166
 70
               2
 50
18.616527274970466
  0
VERTEX
  8
___
  6
CONTINUOUS
 62
               4
 10
-78.437501549327862
 20
-101.50986696942209
  0
VERTEX
  8
___
  6
CONTINUOUS
 62
               4
 10
-78.437501549327862
 20
-101.50986696942209
 42
0.1717579160751447
 70
               2
 50
237.52493614322523
  0
VERTEX
  8
___
  6
CONTINUOUS
 62
               4
 10
-75.025420272626434
 20
-101.15545658930478
  0
VERTEX
  8
___
  6
CONTINUOUS
 62
               4
 10
-75.025420272626434
 20
-101.15545658930478
 42
-0.406168820143277
 70
               2
 50
-120.54611128047655
  0
VERTEX
  8
___
  6
CONTINUOUS
 62
               4
 10
-73.256237436101401
 20
-101.75735959830399
  0
VERTEX
  8
___
  6
CONTINUOUS
 62
               4
 10
-73.256237436101401
 20
-101.75735959830399
 42
-0.40616882014559
 70
               2
 50
29.193657810576358
  0
VERTEX
  8
___
  6
CONTINUOUS
 62
               4
 10
-73.809187252782976
 20
-103.54244829121353
  0
VERTEX
  8
___
  6
CONTINUOUS
 62
               4
 10
-73.809187252782976
 20
-103.54244829121353
 42
0.1717579160608982
 70
               2
 50
-105.18319832441256
  0
VERTEX
  8
___
  6
CONTINUOUS
 62
               4
 10
-76.101482327238955
 20
-106.09456283530926
  0
VERTEX
  8
___
  6
CONTINUOUS
 62
               4
 10
-76.101482327238955
 20
-106.09456283530926
 42
0.2606584291385362
 70
               2
 50
-23.660303968099939
  0
VERTEX
  8
___
  6
CONTINUOUS
 62
               4
 10
-76.043844903192621
 20
-106.57929871436181
  0
VERTEX
  8
___
  6
CONTINUOUS
 62
               4
 10
-75.556972101589963
 20
-107.24942163605601
  0
VERTEX
  8
___
  6
CONTINUOUS
 62
               4
 10
-75.556972101589963
 20
-107.24942163605601
 42
0.2606584287496969
 70
               2
 50
41.627820491551425
  0
VERTEX
  8
___
  6
CONTINUOUS
 62
               4
 10
-75.113771828672725
 20
-107.45402970858322
  0
VERTEX
  8
___
  6
CONTINUOUS
 62
               4
 10
-75.113771828672725
 20
-107.45402970858322
 42
0.1717579160750947
 70
               2
 50
-738.19269289679357
  0
VERTEX
  8
___
  6
CONTINUOUS
 62
               4
 10
-71.978208526777053
 20
-106.06257430644064
  0
VERTEX
  8
___
  6
CONTINUOUS
 62
               4
 10
-71.978208526777053
 20
-106.06257430644064
 42
-0.4061688201437971
 70
               2
 50
-60.542379266556217
  0
VERTEX
  8
___
  6
CONTINUOUS
 62
               4
 10
-70.109617402833464
 20
-106.0883105226826
  0
VERTEX
  8
___
  6
CONTINUOUS
 62
               4
 10
-70.109617402833464
 20
-106.0883105226826
 42
-0.4061688201450963
 70
               2
 50
57.295779513055628
  0
VERTEX
  8
___
  6
CONTINUOUS
 62
               4
 10
-70.083881186596955
 20
-107.95690164662983
  0
VERTEX
  8
___
  6
CONTINUOUS
 62
               4
 10
-70.083881186596955
 20
-107.95690164662983
 42
0.171757916060744
 70
               2
 50
-54.223279458426411
  0
VERTEX
  8
___
  6
CONTINUOUS
 62
               4
 10
-71.475336588714526
 20
-111.09246494825311
  0
VERTEX
  8
___
  6
CONTINUOUS
 62
               4
 10
-71.475336588714526
 20
-111.09246494825311
 42
0.260658429139888
 70
               2
 50
-4.4470860121539832
  0
VERTEX
  8
___
  6
CONTINUOUS
 62
               4
 10
-71.270728516580675
 20
-111.5356652211658
  0
VERTEX
  8
___
  6
CONTINUOUS
 62
               4
 10
-70.600605594886474
 20
-112.02253802276755
  0
VERTEX
  8
___
  6
CONTINUOUS
 62
               4
 10
-70.600605594886474
 20
-112.02253802276755
 42
0.2606584287498859
 70
               2
 50
78.860875041019881
  0
VERTEX
  8
___
  6
CONTINUOUS
 62
               4
 10
-70.115869715707959
 20
-112.08017544718859
  0
VERTEX
  8
___
  6
CONTINUOUS
 62
               4
 10
-70.115869715707959
 20
-112.08017544718859
 42
0.1717579160751357
 70
               2
 50
-138.74742966636222
  0
VERTEX
  8
___
  6
CONTINUOUS
 62
               4
 10
-67.563755171360754
 20
-109.78788037262257
  0
VERTEX
  8
___
  6
CONTINUOUS
 62
               4
 10
-67.563755171360754
 20
-109.78788037262257
 42
-0.4061688201437613
 70
               2
 50
-31.210368217992244
  0
VERTEX
  8
___
  6
CONTINUOUS
 62
               4
 10
-65.778666478457126
 20
-109.23493055594781
  0
VERTEX
  8
___
  6
CONTINUOUS
 62
               4
 10
-65.778666478457126
 20
-109.23493055594781
 42
-0.4061688201460295
 70
               2
 50
112.44929879390575
  0
VERTEX
  8
___
  6
CONTINUOUS
 62
               4
 10
-65.176763469462458
 20
-111.00411339248103
  0
VERTEX
  8
___
  6
CONTINUOUS
 62
               4
 10
-65.176763469462458
 20
-111.00411339248103
 42
0.1717579160608994
 70
               2
 50
-27.232785157508371
  0
VERTEX
  8
___
  6
CONTINUOUS
 62
               4
 10
-65.531173849639345
 20
-114.41619466891461
  0
VERTEX
  8
___
  6
CONTINUOUS
 62
               4
 10
-65.531173849639345
 20
-114.41619466891461
 42
0.2606584291397384
 70
               2
 50
13.820891342135244
  0
VERTEX
  8
___
  6
CONTINUOUS
 62
               4
 10
-65.199623593108299
 20
-114.77447580501621
  0
VERTEX
  8
___
  6
CONTINUOUS
 62
               4
 10
-64.411846851918199
 20
-115.0304399844631
  0
VERTEX
  8
___
  6
CONTINUOUS
 62
               4
 10
-64.411846851918199
 20
-115.0304399844631
 42
0.2606584287496268
 70
               2
 50
176.3382773568207
  0
VERTEX
  8
___
  6
CONTINUOUS
 62
               4
 10
-63.933024691686114
 20
-114.93546480809209
  0
VERTEX
  8
___
  6
CONTINUOUS
 62
               4
 10
-63.933024691686114
 20
-114.93546480809209
 42
0.1717579160751765
 70
               2
 50
-67.231473573321679
  0
VERTEX
  8
___
  6
CONTINUOUS
 62
               4
 10
-62.214177658115659
 20
-111.96671587435958
  0
VERTEX
  8
___
  6
CONTINUOUS
 62
               4
 10
-62.214177658115659
 20
-111.96671587435958
 42
-0.4061688201433172
 70
               2
 50
-10.700027509685068
  0
VERTEX
  8
___
  6
CONTINUOUS
 62
               4
 10
-60.687328314949809
 20
-110.88920660545273
  0
VERTEX
  8
___
  6
CONTINUOUS
 62
               4
 10
-60.687328314949809
 20
-110.88920660545273
 42
-0.4061688201453052
 70
               2
 50
361.75131468525581
  0
VERTEX
  8
___
  6
CONTINUOUS
 62
               4
 10
-59.568176973422851
 20
-112.3858012119108
  0
VERTEX
  8
___
  6
CONTINUOUS
 62
               4
 10
-59.568176973422851
 20
-112.3858012119108
 42
0.1717579160608328
 70
               2
 50
-7.4636151795291497
  0
VERTEX
  8
___
  6
CONTINUOUS
 62
               4
 10
-58.850850174326297
 20
-115.74040217444917
  0
VERTEX
  8
___
  6
CONTINUOUS
 62
               4
 10
-58.850850174326297
 20
-115.74040217444917
 42
0.2606584291389745
 70
               2
 50
35.195979095499432
  0
VERTEX
  8
___
  6
CONTINUOUS
 62
               4
 10
-58.424812182553978
 20
-115.97869311984687
  0
VERTEX
  8
___
  6
CONTINUOUS
 62
               4
 10
-57.59649469805936
 20
-115.97869311984687
  0
VERTEX
  8
___
  6
CONTINUOUS
 62
               4
 10
-57.59649469805936
 20
-115.97869311984687
 42
0.2606584287495656
 70
               2
 50
3.1191399769264294E+17
  0
VERTEX
  8
___
  6
CONTINUOUS
 62
               4
 10
-57.170456705965989
 20
-115.74040217467746
  0
VERTEX
  8
___
  6
CONTINUOUS
 62
               4
 10
-57.170456705965989
 20
-115.74040217467746
 42
0.1717579160750236
 70
               2
 50
-35.195979185969009
  0
VERTEX
  8
___
  6
CONTINUOUS
 62
               4
 10
-56.453129906730283
 20
-112.38580121190307
  0
VERTEX
  8
___
  6
CONTINUOUS
 62
               4
 10
-56.453129906730283
 20
-112.38580121190307
 42
-0.4061688201436831
 70
               2
 50
7.4636151791860428
  0
VERTEX
  8
___
  6
CONTINUOUS
 62
               4
 10
-55.333978565201505
 20
-110.88920660545273
  0
VERTEX
  8
___
  6
CONTINUOUS
 62
               4
 10
-55.333978565201505
 20
-110.88920660545273
 42
-0.406168820145444
 70
               2
 50
-361.75131468452474
  0
VERTEX
  8
___
  6
CONTINUOUS
 62
               4
 10
-53.807129222036565
 20
-111.96671587436731
  0
VERTEX
  8
___
  6
CONTINUOUS
 62
               4
 10
-53.807129222036565
 20
-111.96671587436731
 42
0.1717579160609441
 70
               2
 50
10.700027509262322
  0
VERTEX
  8
___
  6
CONTINUOUS
 62
               4
 10
-52.088282188671656
 20
-114.93546480791792
  0
VERTEX
  8
___
  6
CONTINUOUS
 62
               4
 10
-52.088282188671656
 20
-114.93546480791792
 42
0.2606584291385413
 70
               2
 50
67.231473417133955
  0
VERTEX
  8
___
  6
CONTINUOUS
 62
               4
 10
-51.609460028674221
 20
-115.03043998460589
  0
VERTEX
  8
___
  6
CONTINUOUS
 62
               4
 10
-50.82168328748412
 20
-114.774475805159
  0
VERTEX
  8
___
  6
CONTINUOUS
 62
               4
 10
-50.82168328748412
 20
-114.774475805159
 42
0.2606584287497291
 70
               2
 50
-176.33827735714758
  0
VERTEX
  8
___
  6
CONTINUOUS
 62
               4
 10
-50.490133030577454
 20
-114.41619466917518
  0
VERTEX
  8
___
  6
CONTINUOUS
 62
               4
 10
-50.490133030577454
 20
-114.41619466917518
 42
0.1717579160753306
 70
               2
 50
-13.820891411751514
  0
VERTEX
  8
___
  6
CONTINUOUS
 62
               4
 10
-50.844543410694314
 20
-111.00411339247421
  0
VERTEX
  8
___
  6
CONTINUOUS
 62
               4
 10
-50.844543410694314
 20
-111.00411339247421
 42
-0.4061688201440519
 70
               2
 50
27.232785157142715
  0
VERTEX
  8
___
  6
CONTINUOUS
 62
               4
 10
-50.242640401696008
 20
-109.2349305559469
  0
VERTEX
  8
___
  6
CONTINUOUS
 62
               4
 10
-50.242640401696008
 20
-109.2349305559469
 42
-0.4061688201452585
 70
               2
 50
-112.44929879350909
  0
VERTEX
  8
___
  6
CONTINUOUS
 62
               4
 10
-48.457551708786923
 20
-109.78788037262848
  0
VERTEX
  8
___
  6
CONTINUOUS
 62
               4
 10
-48.457551708786923
 20
-109.78788037262848
 42
0.1717579160610782
 70
               2
 50
31.210368217584676
  0
VERTEX
  8
___
  6
CONTINUOUS
 62
               4
 10
-45.905437164690738
 20
-112.08017544708537
  0
VERTEX
  8
___
  6
CONTINUOUS
 62
               4
 10
-45.905437164690738
 20
-112.08017544708537
 42
0.2606584291392409
 70
               2
 50
138.74742921492651
  0
VERTEX
  8
___
  6
CONTINUOUS
 62
               4
 10
-45.420701285638643
 20
-112.02253802303812
  0
VERTEX
  8
___
  6
CONTINUOUS
 62
               4
 10
-44.750578363944442
 20
-111.53566522143637
  0
VERTEX
  8
___
  6
CONTINUOUS
 62
               4
 10
-44.750578363944442
 20
-111.53566522143637
 42
0.2606584287497813
 70
               2
 50
-78.860875041118035
  0
VERTEX
  8
___
  6
CONTINUOUS
 62
               4
 10
-44.545970291416779
 20
-111.09246494851914
  0
VERTEX
  8
___
  6
CONTINUOUS
 62
               4
 10
-44.545970291416779
 20
-111.09246494851914
 42
0.1717579160754653
 70
               2
 50
4.4470859459528844
  0
VERTEX
  8
___
  6
CONTINUOUS
 62
               4
 10
-45.937425693559817
 20
-107.95690164662346
  0
VERTEX
  8
___
  6
CONTINUOUS
 62
               4
 10
-45.937425693559817
 20
-107.95690164662346
 42
-0.4061688201435176
 70
               2
 50
54.223279457713929
  0
VERTEX
  8
___
  6
CONTINUOUS
 62
               4
 10
-45.911689477316941
 20
-106.08831052268079
  0
VERTEX
  8
___
  6
CONTINUOUS
 62
               4
 10
-45.911689477316941
 20
-106.08831052268079
 42
-0.4061688201449459
 70
               2
 50
-57.295779513138214
  0
VERTEX
  8
___
  6
CONTINUOUS
 62
               4
 10
-44.043098353370624
 20
-106.06257430644428
  0
VERTEX
  8
___
  6
CONTINUOUS
 62
               4
 10
-44.043098353370624
 20
-106.06257430644428
 42
0.1717579160609492
 70
               2
 50
60.542379265836161
  0
VERTEX
  8
___
  6
CONTINUOUS
 62
               4
 10
-40.907535051746891
 20
-107.45402970856185
  0
VERTEX
  8
___
  6
CONTINUOUS
 62
               4
 10
-40.907535051746891
 20
-107.45402970856185
 42
0.2606584291406154
 70
               2
 50
738.19268190032517
  0
VERTEX
  8
___
  6
CONTINUOUS
 62
               4
 10
-40.4643347788342
 20
-107.249421636428
  0
VERTEX
  8
___
  6
CONTINUOUS
 62
               4
 10
-39.977461977232451
 20
-106.5792987147338
  0
VERTEX
  8
___
  6
CONTINUOUS
 62
               4
 10
-39.977461977232451
 20
-106.5792987147338
 42
0.2606584287505906
 70
               2
 50
-41.627820491635823
  0
VERTEX
  8
___
  6
CONTINUOUS
 62
               4
 10
-39.919824552811406
 20
-106.09456283555528
  0
VERTEX
  8
___
  6
CONTINUOUS
 62
               4
 10
-39.919824552811406
 20
-106.09456283555528
 42
0.171757916075115
 70
               2
 50
23.660303891078104
  0
VERTEX
  8
___
  6
CONTINUOUS
 62
               4
 10
-42.212119627377433
 20
-103.54244829120807
  0
VERTEX
  8
___
  6
CONTINUOUS
 62
               4
 10
-42.212119627377433
 20
-103.54244829120807
 42
-0.4061688201435947
 70
               2
 50
105.18319832297219
  0
VERTEX
  8
___
  6
CONTINUOUS
 62
               4
 10
-42.765069444051733
 20
-101.75735959830308
  0
VERTEX
  8
___
  6
CONTINUOUS
 62
               4
 10
-42.765069444051733
 20
-101.75735959830308
 42
-0.4061688201460288
 70
               2
 50
-29.193657810426775
  0
VERTEX
  8
___
  6
CONTINUOUS
 62
               4
 10
-40.995886607518514
 20
-101.15545658930841
  0
VERTEX
  8
___
  6
CONTINUOUS
 62
               4
 10
-40.995886607518514
 20
-101.15545658930841
 42
0.1717579160611298
 70
               2
 50
120.54611127803479
  0
VERTEX
  8
___
  6
CONTINUOUS
 62
               4
 10
-37.583805331085387
 20
-101.5098669694853
  0
VERTEX
  8
___
  6
CONTINUOUS
 62
               4
 10
-37.583805331085387
 20
-101.5098669694853
 42
0.2606584291391622
 70
               2
 50
-237.52493733868712
  0
VERTEX
  8
___
  6
CONTINUOUS
 62
               4
 10
-37.225524194983336
 20
-101.17831671295426
  0
VERTEX
  8
___
  6
CONTINUOUS
 62
               4
 10
-36.969560015536445
 20
-100.39053997176416
  0
VERTEX
  8
___
  6
CONTINUOUS
 62
               4
 10
-36.969560015536445
 20
-100.39053997176416
 42
0.260658428749047
 70
               2
 50
-18.616527274774249
  0
VERTEX
  8
___
  6
CONTINUOUS
 62
               4
 10
-37.064535191907453
 20
-99.911717811532071
  0
VERTEX
  8
___
  6
CONTINUOUS
 62
               4
 10
-37.064535191907453
 20
-99.911717811532071
 42
0.1717579160752106
 70
               2
 50
48.828415852458697
  0
VERTEX
  8
___
  6
CONTINUOUS
 62
               4
 10
-40.033284125640421
 20
-98.192870777961616
  0
VERTEX
  8
___
  6
CONTINUOUS
 62
               4
 10
-40.033284125640421
 20
-98.192870777961616
 42
-0.4061688201433648
 70
               2
 50
306.80354298626207
  0
VERTEX
  8
___
  6
CONTINUOUS
 62
               4
 10
-41.110793394547727
 20
-96.666021434796676
  0
VERTEX
  8
___
  6
CONTINUOUS
 62
               4
 10
-41.110793394547727
 20
-96.666021434796676
 42
-0.4061688201454511
 70
               2
 50
-9.0747599711304119
  0
VERTEX
  8
___
  6
CONTINUOUS
 62
               4
 10
-39.614198788089197
 20
-95.546870093269717
  0
VERTEX
  8
___
  6
CONTINUOUS
 62
               4
 10
-39.614198788089197
 20
-95.546870093269717
 42
0.1717579160608639
 70
               2
 50
439.84131966166171
  0
VERTEX
  8
___
  6
CONTINUOUS
 62
               4
 10
-36.259597825551282
 20
-94.829543294173163
  0
VERTEX
  8
___
  6
CONTINUOUS
 62
               4
 10
-36.259597825551282
 20
-94.829543294173163
 42
0.2606584291397326
 70
               2
 50
-93.272198540657342
  0
VERTEX
  8
___
  6
CONTINUOUS
 62
               4
 10
-36.021306880153134
 20
-94.403505302400845
  0
VERTEX
  8
___
  6
CONTINUOUS
 62
               4
 10
-36.021306880153134
 20
-93.575187817906226
  0
VERTEX
  8
___
  6
CONTINUOUS
 62
               4
 10
-36.021306880153134
 20
-93.575187817906226
 42
0.2606584287499955
 70
               2
  0
VERTEX
  8
___
  6
CONTINUOUS
 62
               4
 10
-36.259597825322999
 20
-93.149149825812856
  0
VERTEX
  8
___
  6
CONTINUOUS
 62
               4
 10
-36.259597825322999
 20
-93.149149825812856
 42
0.1717579160750226
 70
               2
 50
93.272198300437054
  0
VERTEX
  8
___
  6
CONTINUOUS
 62
               4
 10
-39.614198788097383
 20
-92.431823026577149
  0
VERTEX
  8
___
  6
CONTINUOUS
 62
               4
 10
-39.614198788097383
 20
-92.431823026577149
 42
-0.4061688201433644
 70
               2
 50
-439.84131968417387
  0
VERTEX
  8
___
  6
CONTINUOUS
 62
               4
 10
-41.110793394546818
 20
-91.312671685048826
  0
VERTEX
  8
___
  6
CONTINUOUS
 62
               4
 10
-41.110793394546818
 20
-91.312671685048826
 42
-0.4061688201450951
 70
               2
 50
9.0747599711112255
  0
VERTEX
  8
___
  6
CONTINUOUS
 62
               4
 10
-40.033284125632235
 20
-89.785822341884341
  0
VERTEX
  8
___
  6
CONTINUOUS
 62
               4
 10
-40.033284125632235
 20
-89.785822341884341
 42
0.1717579160608825
 70
               2
 50
-306.80354299712593
  0
VERTEX
  8
___
  6
CONTINUOUS
 62
               4
 10
-37.064535192082076
 20
-88.066975308519432
  0
VERTEX
  8
___
  6
CONTINUOUS
 62
               4
 10
-37.064535192082076
 20
-88.066975308519432
 42
0.2606584291398676
 70
               2
 50
-48.828415966014262
  0
VERTEX
  8
___
  6
CONTINUOUS
 62
               4
 10
-36.969560015394563
 20
-87.588153148521087
  0
VERTEX
  8
___
  6
CONTINUOUS
 62
               4
 10
-37.225524194841455
 20
-86.800376407330987
  0
VERTEX
  8
___
  6
CONTINUOUS
 62
               4
 10
-37.225524194841455
 20
-86.800376407330987
 42
0.2606584287480417
 70
               2
 50
18.616527274971187
  0
VERTEX
  8
___
  6
CONTINUOUS
 62
               4
 10
-37.583805330824362
 20
-86.468826150424775
  0
VERTEX
  8
___
  6
CONTINUOUS
 62
               4
 10
-37.583805330824362
 20
-86.468826150424775
 42
0.1717579160751487
 70
               2
 50
237.5249361433475
  0
VERTEX
  8
___
  6
CONTINUOUS
 62
               4
 10
-40.99588660752579
 20
-86.823236530542545
  0
VERTEX
  8
___
  6
CONTINUOUS
 62
               4
 10
-40.99588660752579
 20
-86.823236530542545
 42
-0.4061688201432726
 70
               2
 50
-120.54611128042937
  0
VERTEX
  8
___
  6
CONTINUOUS
 62
               4
 10
-42.765069444051733
 20
-86.221333521543329
  0
VERTEX
  8
___
  6
CONTINUOUS
 62
               4
 10
-42.765069444051733
 20
-86.221333521543329
 42
-0.4061688201457136
 70
               2
 50
29.19365781058621
  0
VERTEX
  8
___
  6
CONTINUOUS
 62
               4
 10
-42.212119627370157
 20
-84.436244828634244
  0
VERTEX
  8
___
  6
CONTINUOUS
 62
               4
 10
-42.212119627370157
 20
-84.436244828634244
 42
0.171757916060862
 70
               2
 50
-105.1831983244227
  0
VERTEX
  8
___
  6
CONTINUOUS
 62
               4
 10
-39.919824552913269
 20
-81.88413028453806
  0
VERTEX
  8
___
  6
CONTINUOUS
 62
               4
 10
-39.919824552913269
 20
-81.88413028453806
 42
0.2606584291391926
 70
               2
 50
-23.660303968057864
  0
VERTEX
  8
___
  6
CONTINUOUS
 62
               4
 10
-39.977461976960512
 20
-81.399394405485509
  0
VERTEX
  8
___
  6
CONTINUOUS
 62
               4
 10
-40.46433477856317
 20
-80.729271483791308
  0
VERTEX
  8
___
  6
CONTINUOUS
 62
               4
 10
-40.46433477856317
 20
-80.729271483791308
 42
0.2606584287496737
 70
               2
 50
41.627820491488826
  0
VERTEX
  8
___
  6
CONTINUOUS
 62
               4
 10
-40.907535051479499
 20
-80.5246634112641
  0
VERTEX
  8
___
  6
CONTINUOUS
 62
               4
 10
-40.907535051479499
 20
-80.5246634112641
 42
0.1717579160751082
 70
               2
 50
-738.19269289919737
  0
VERTEX
  8
___
  6
CONTINUOUS
 62
               4
 10
-44.043098353376081
 20
-81.916118813406229
  0
VERTEX
  8
___
  6
CONTINUOUS
 62
               4
 10
-44.043098353376081
 20
-81.916118813406229
 42
-0.4061688201438019
 70
               2
 50
-60.542379266555159
  0
VERTEX
  8
___
  6
CONTINUOUS
 62
               4
 10
-45.91168947731876
 20
-81.890382597164262
  0
VERTEX
  8
___
  6
CONTINUOUS
 62
               4
 10
-45.91168947731876
 20
-81.890382597164262
 42
-0.4061688201456649
 70
               2
 50
57.295779513167403
  0
VERTEX
  8
___
  6
CONTINUOUS
 62
               4
 10
-45.937425693555269
 20
-80.021791473217036
  0
VERTEX
  8
___
  6
CONTINUOUS
 62
               4
 10
-45.937425693555269
 20
-80.021791473217036
 42
0.1717579160608488
 70
               2
 50
-54.223279458422326
  0
VERTEX
  8
___
  6
CONTINUOUS
 62
               4
 10
-44.545970291438607
 20
-76.886228171593757
  0
VERTEX
  8
___
  6
CONTINUOUS
 62
               4
 10
-44.545970291438607
 20
-76.886228171593757
 42
0.2606584291415486
 70
               2
 50
-4.4470860123333038
  0
VERTEX
  8
___
  6
CONTINUOUS
 62
               4
 10
-44.750578363572458
 20
-76.443027898681066
  0
VERTEX
  8
___
  6
CONTINUOUS
 62
               4
 10
-45.420701285266659
 20
-75.956155097079318
  0
VERTEX
  8
___
  6
CONTINUOUS
 62
               4
 10
-45.420701285266659
 20
-75.956155097079318
 42
0.2606584287497722
 70
               2
 50
78.860875041017877
  0
VERTEX
  8
___
  6
CONTINUOUS
 62
               4
 10
-45.905437164444265
 20
-75.898517672658272
  0
VERTEX
  8
___
  6
CONTINUOUS
 62
               4
 10
-45.905437164444265
 20
-75.898517672658272
 42
0.1717579160751027
 70
               2
 50
-138.74742966640653
  0
VERTEX
  8
___
  6
CONTINUOUS
 62
               4
 10
-48.45755170879238
 20
-78.1908127472243
  0
VERTEX
  8
___
  6
CONTINUOUS
 62
               4
 10
-48.45755170879238
 20
-78.1908127472243
 42
-0.4061688201441408
 70
               2
 50
-31.210368217964007
  0
VERTEX
  8
___
  6
CONTINUOUS
 62
               4
 10
-50.242640401697827
 20
-78.743762563899054
  0
VERTEX
  8
___
  6
CONTINUOUS
 62
               4
 10
-50.242640401697827
 20
-78.743762563899054
 42
-0.4061688201452247
 70
               2
 50
112.44929879339297
  0
VERTEX
  8
___
  6
CONTINUOUS
 62
               4
 10
-50.844543410691585
 20
-76.974579727365835
  0
VERTEX
  8
___
  6
CONTINUOUS
 62
               4
 10
-50.844543410691585
 20
-76.974579727365835
 42
0.1717579160609103
 70
               2
 50
-27.232785157510001
  0
VERTEX
  8
___
  6
CONTINUOUS
 62
               4
 10
-50.490133030514698
 20
-73.562498450932253
  0
VERTEX
  8
___
  6
CONTINUOUS
 62
               4
 10
-50.490133030514698
 20
-73.562498450932253
 42
0.2606584291406085
 70
               2
 50
13.820891342035996
  0
VERTEX
  8
___
  6
CONTINUOUS
 62
               4
 10
-50.821683287045744
 20
-73.204217314830657
  0
VERTEX
  8
___
  6
CONTINUOUS
 62
               4
 10
-51.609460028235844
 20
-72.948253135383766
  0
VERTEX
  8
___
  6
CONTINUOUS
 62
               4
 10
-51.609460028235844
 20
-72.948253135383766
 42
0.260658428749841
 70
               2
 50
176.33827735655174
  0
VERTEX
  8
___
  6
CONTINUOUS
 62
               4
 10
-52.088282188467929
 20
-73.043228311754774
  0
VERTEX
  8
___
  6
CONTINUOUS
 62
               4
 10
-52.088282188467929
 20
-73.043228311754774
 42
0.1717579160751419
 70
               2
 50
-67.231473573321665
  0
VERTEX
  8
___
  6
CONTINUOUS
 62
               4
 10
-53.807129222038384
 20
-76.011977245486833
  0
VERTEX
  8
___
  6
CONTINUOUS
 62
               4
 10
-53.807129222038384
 20
-76.011977245486833
 42
-0.4061688201436605
 70
               2
 50
-10.700027509621695
  0
VERTEX
  8
___
  6
CONTINUOUS
 62
               4
 10
-55.333978565203324
 20
-77.089486514394139
  0
VERTEX
  8
___
  6
CONTINUOUS
 62
               4
 10
-55.333978565203324
 20
-77.089486514394139
 42
-0.406168820145307
 70
               2
 50
361.7513146852686
  0
VERTEX
  8
___
  6
CONTINUOUS
 62
               4
 10
-56.453129906730283
 20
-75.592891907936064
  0
VERTEX
  8
___
  6
CONTINUOUS
 62
               4
 10
-56.453129906730283
 20
-75.592891907936064
 42
0.1717579160608002
 70
               2
 50
-7.4636151795253545
  0
VERTEX
  8
___
  6
CONTINUOUS
 62
               4
 10
-57.170456705826837
 20
-72.238290945397694
  0
VERTEX
  8
___
  6
CONTINUOUS
 62
               4
 10
-57.170456705826837
 20
-72.238290945397694
 42
0.2606584291389727
 70
               2
 50
35.19597909549887
  0
VERTEX
  8
___
  6
CONTINUOUS
 62
               4
 10
-57.596494697599155
 20
-72.0
  0
VERTEX
  8
___
  6
CONTINUOUS
 62
               4
 10
-58.424812182093774
 20
-72.0
  0
VERTEX
  8
___
  6
CONTINUOUS
 62
               4
 10
-58.424812182093774
 20
-72.0
 42
0.2606584287495527
 70
               2
 50
9.3574199307792870E+17
  0
VERTEX
  8
___
  6
CONTINUOUS
 62
               4
 10
-58.850850174187144
 20
-72.23829094516941
  0
VERTEX
  8
___
  6
CONTINUOUS
 62
               4
 10
-58.850850174187144
 20
-72.23829094516941
 42
0.1717579160750738
 70
               2
 50
-35.195979185976746
  0
VERTEX
  8
___
  6
CONTINUOUS
 62
               4
 10
-59.568176973422851
 20
-75.592891907943795
  0
VERTEX
  8
___
  6
CONTINUOUS
 62
               4
 10
-59.568176973422851
 20
-75.592891907943795
 42
-0.4061688201436506
 70
               2
 50
7.4636151792058572
  0
VERTEX
  8
___
  6
CONTINUOUS
 62
               4
 10
-60.687328314950719
 20
-77.089486514394139
  0
VERTEX
  8
___
  6
CONTINUOUS
 62
               4
 10
-60.687328314950719
 20
-77.089486514394139
 42
-0.4061688201454475
 70
               2
 50
-361.75131468452082
  0
VERTEX
  8
___
  6
CONTINUOUS
 62
               4
 10
-62.214177658115659
 20
-76.011977245479557
  0
SEQEND
  8
___
  6
CONTINUOUS
 62
               4
  0
CIRCLE
  8
___
  6
CONTINUOUS
 62
               4
 10
-61.010653440076567
 20
-86.989346559923433
 40
1.5
  0
CIRCLE
  8
___
  6
CONTINUOUS
 62
               4
 10
-55.010653440076567
 20
-86.989346559923433
 40
1.5
  0
CIRCLE
  8
___
  6
CONTINUOUS
 62
               4
 10
-62.572831266567846
 20
-100.08742277127658
 40
1.4999999999995324
  0
CIRCLE
  8
___
  6
CONTINUOUS
 62
               4
 10
-65.572831266567846
 20
-94.891270348570288
 40
1.50000000000032
  0
CIRCLE
  8
___
  6
CONTINUOUS
 62
               4
 10
-50.448475613585288
 20
-94.891270348570288
 40
1.4999999999995324
  0
CIRCLE
  8
___
  6
CONTINUOUS
 62
               4
 10
-53.448475613585288
 20
-100.08742277127658
 40
1.50000000000032
  0
CIRCLE
  8
___
  6
CONTINUOUS
 62
               4
 10
-58.010653440076567
 20
-93.989346559923433
 40
3.5
  0
POLYLINE
  8
__
  6
CONTINUOUS
 62
               4
 66
               1
 70
             129
  0
VERTEX
  8
__
  6
CONTINUOUS
 62
               4
 10
-60.633642362228329
 20
-107.02006252693218
  0
VERTEX
  8
__
  6
CONTINUOUS
 62
               4
 10
-61.09665645054065
 20
-108.44507336401102
  0
VERTEX
  8
__
  6
CONTINUOUS
 62
               4
 10
-61.09665645054065
 20
-108.44507336401102
 42
0.2208027066748481
 70
               2
 50
-18.616527274844849
  0
VERTEX
  8
__
  6
CONTINUOUS
 62
               4
 10
-60.995445549272517
 20
-109.28112207535514
  0
VERTEX
  8
__
  6
CONTINUOUS
 62
               4
 10
-60.995445549272517
 20
-109.28112207535514
 42
0.2208027066742845
 70
               2
 50
35.531974882002935
  0
VERTEX
  8
__
  6
CONTINUOUS
 62
               4
 10
-60.291506211003252
 20
-109.7433887757702
  0
VERTEX
  8
__
  6
CONTINUOUS
 62
               4
 10
-60.291506211003252
 20
-109.7433887757702
 42
0.2344536369337989
 70
               2
 50
388.48653570454638
  0
VERTEX
  8
__
  6
CONTINUOUS
 62
               4
 10
-46.785570995907619
 20
-105.35504440832665
  0
VERTEX
  8
__
  6
CONTINUOUS
 62
               4
 10
-46.785570995907619
 20
-105.35504440832665
 42
0.2208027066922222
 70
               2
 50
-58.529439064602613
  0
VERTEX
  8
__
  6
CONTINUOUS
 62
               4
 10
-46.48778565730845
 20
-104.5672976302958
  0
VERTEX
  8
__
  6
CONTINUOUS
 62
               4
 10
-46.48778565730845
 20
-104.5672976302958
 42
0.220802706692626
 70
               2
 50
4.2023930583112596
  0
VERTEX
  8
__
  6
CONTINUOUS
 62
               4
 10
-46.897321420840854
 20
-103.83142973959093
  0
VERTEX
  8
__
  6
CONTINUOUS
 62
               4
 10
-48.109508041223307
 20
-102.95072460800338
  0
VERTEX
  8
__
  6
CONTINUOUS
 62
               4
 10
-48.109508041223307
 20
-102.95072460800338
 42
0.360653525356121
 70
               2
 50
78.860875041014211
  0
VERTEX
  8
__
  6
CONTINUOUS
 62
               4
 10
-49.383468119063764
 20
-103.03230493269803
  0
VERTEX
  8
__
  6
CONTINUOUS
 62
               4
 10
-49.383468119063764
 20
-103.03230493269803
 42
-0.2247002456869544
 70
               2
 50
-60.741154417150007
  0
VERTEX
  8
__
  6
CONTINUOUS
 62
               4
 10
-59.555035297405993
 20
-106.33724745051859
  0
VERTEX
  8
__
  6
CONTINUOUS
 62
               4
 10
-59.555035297405993
 20
-106.33724745051859
 42
0.3606535254464005
 70
               2
 50
445.53153276930124
  0
VERTEX
  8
__
  6
CONTINUOUS
 62
               4
 10
-60.633642362228329
 20
-107.02006252693218
  0
SEQEND
  8
__
  6
CONTINUOUS
 62
               4
  0
POLYLINE
  8
__
  6
CONTINUOUS
 62
               4
 66
               1
 70
             129
  0
VERTEX
  8
__
  6
CONTINUOUS
 62
               4
 10
-71.227152601471971
 20
-92.439346559923251
  0
VERTEX
  8
__
  6
CONTINUOUS
 62
               4
 10
-72.725497665421244
 20
-92.439346559923251
  0
VERTEX
  8
__
  6
CONTINUOUS
 62
               4
 10
-72.725497665421244
 20
-92.439346559923251
 42
-0.2208027066832151
 70
               2
 50
-49783648883007.687
  0
VERTEX
  8
__
  6
CONTINUOUS
 62
               4
 10
-73.489351351749065
 20
-92.084736012820485
  0
VERTEX
  8
__
  6
CONTINUOUS
 62
               4
 10
-73.489351351749065
 20
-92.084736012820485
 42
-0.2208027066829594
 70
               2
 50
48.409914696063083
  0
VERTEX
  8
__
  6
CONTINUOUS
 62
               4
 10
-73.711463890866071
 20
-91.272401651734981
  0
VERTEX
  8
__
  6
CONTINUOUS
 62
               4
 10
-73.711463890866071
 20
-91.272401651734981
 42
-0.2344536369342841
 70
               2
 50
-9.7013857103102534
  0
VERTEX
  8
__
  6
CONTINUOUS
 62
               4
 10
-65.364336878054019
 20
-79.783566943447568
  0
VERTEX
  8
__
  6
CONTINUOUS
 62
               4
 10
-65.364336878054019
 20
-79.783566943447568
 42
-0.220802706701652
 70
               2
 50
-109.54904194955975
  0
VERTEX
  8
__
  6
CONTINUOUS
 62
               4
 10
-64.523124441345317
 20
-79.743783398348569
  0
VERTEX
  8
__
  6
CONTINUOUS
 62
               4
 10
-64.523124441345317
 20
-79.743783398348569
 42
-0.220802706701265
 70
               2
 50
140.43488204300451
  0
VERTEX
  8
__
  6
CONTINUOUS
 62
               4
 10
-63.949825999502536
 20
-80.360670738723911
  0
VERTEX
  8
__
  6
CONTINUOUS
 62
               4
 10
-63.486811911114273
 20
-81.78568157603695
  0
VERTEX
  8
__
  6
CONTINUOUS
 62
               4
 10
-63.486811911114273
 20
-81.78568157603695
 42
-0.3606535254451366
 70
               2
 50
18.616527274816132
  0
VERTEX
  8
__
  6
CONTINUOUS
 62
               4
 10
-63.958074724848302
 20
-82.972079902594487
  0
VERTEX
  8
__
  6
CONTINUOUS
 62
               4
 10
-63.958074724848302
 20
-82.972079902594487
 42
0.2247002456875759
 70
               2
 50
-104.77471273445948
  0
VERTEX
  8
__
  6
CONTINUOUS
 62
               4
 10
-70.244448959910187
 20
-91.624531745103923
  0
VERTEX
  8
__
  6
CONTINUOUS
 62
               4
 10
-70.244448959910187
 20
-91.624531745103923
 42
-0.3606535252988274
 70
               2
 50
-10.797079697956507
  0
VERTEX
  8
__
  6
CONTINUOUS
 62
               4
 10
-71.227152601471971
 20
-92.439346559923251
  0
SEQEND
  8
__
  6
CONTINUOUS
 62
               4
  0
POLYLINE
  8
__
  6
CONTINUOUS
 62
               4
 66
               1
 70
             129
  0
VERTEX
  8
__
  6
CONTINUOUS
 62
               4
 10
-46.346152284217169
 20
-100.52367362497262
  0
VERTEX
  8
__
  6
CONTINUOUS
 62
               4
 10
-45.133965664003881
 20
-101.40437875643693
  0
VERTEX
  8
__
  6
CONTINUOUS
 62
               4
 10
-45.133965664003881
 20
-101.40437875643693
 42
0.220802706686759
 70
               2
 50
78.860875041195456
  0
VERTEX
  8
__
  6
CONTINUOUS
 62
               4
 10
-44.307560200666103
 20
-101.56647472916939
  0
VERTEX
  8
__
  6
CONTINUOUS
 62
               4
 10
-44.307560200666103
 20
-101.56647472916939
 42
0.2208027066868708
 70
               2
 50
-233.17670453344371
  0
VERTEX
  8
__
  6
CONTINUOUS
 62
               4
 10
-43.65038922450276
 20
-101.03983690077212
  0
VERTEX
  8
__
  6
CONTINUOUS
 62
               4
 10
-43.65038922450276
 20
-101.03983690077212
 42
0.2344536369336118
 70
               2
 50
-28.429113737907851
  0
VERTEX
  8
__
  6
CONTINUOUS
 62
               4
 10
-43.650389224491846
 20
-86.838856219096215
  0
VERTEX
  8
__
  6
CONTINUOUS
 62
               4
 10
-43.650389224491846
 20
-86.838856219096215
 42
0.2208027066726331
 70
               2
 50
28.42911374609962
  0
VERTEX
  8
__
  6
CONTINUOUS
 62
               4
 10
-44.30756020073386
 20
-86.312218390724411
  0
VERTEX
  8
__
  6
CONTINUOUS
 62
               4
 10
-44.30756020073386
 20
-86.312218390724411
 42
0.2208027066728153
 70
               2
 50
233.17670458802942
  0
VERTEX
  8
__
  6
CONTINUOUS
 62
               4
 10
-45.133965664112111
 20
-86.474314363488247
  0
VERTEX
  8
__
  6
CONTINUOUS
 62
               4
 10
-46.346152284229902
 20
-87.355019494882526
  0
VERTEX
  8
__
  6
CONTINUOUS
 62
               4
 10
-46.346152284229902
 20
-87.355019494882526
 42
0.3606535253076776
 70
               2
 50
-78.860875041014836
  0
VERTEX
  8
__
  6
CONTINUOUS
 62
               4
 10
-46.662240099162773
 20
-88.591837235211642
  0
VERTEX
  8
__
  6
CONTINUOUS
 62
               4
 10
-46.662240099162773
 20
-88.591837235211642
 42
-0.2247002456890462
 70
               2
 50
27.117941782445051
  0
VERTEX
  8
__
  6
CONTINUOUS
 62
               4
 10
-46.662240099163682
 20
-99.28685588463668
  0
VERTEX
  8
__
  6
CONTINUOUS
 62
               4
 10
-46.662240099163682
 20
-99.28685588463668
 42
0.3606535253027335
 70
               2
 50
-27.117941785612107
  0
VERTEX
  8
__
  6
CONTINUOUS
 62
               4
 10
-46.346152284217169
 20
-100.52367362497262
  0
SEQEND
  8
__
  6
CONTINUOUS
 62
               4
  0
POLYLINE
  8
__
  6
CONTINUOUS
 62
               4
 66
               1
 70
             129
  0
VERTEX
  8
__
  6
CONTINUOUS
 62
               4
 10
-60.633642362315186
 20
-80.858630592647387
  0
VERTEX
  8
__
  6
CONTINUOUS
 62
               4
 10
-61.096656450517003
 20
-79.433619755908239
  0
VERTEX
  8
__
  6
CONTINUOUS
 62
               4
 10
-61.096656450517003
 20
-79.433619755908239
 42
-0.2208027066663897
 70
               2
 50
18.616527274782971
  0
VERTEX
  8
__
  6
CONTINUOUS
 62
               4
 10
-60.99544554925842
 20
-78.597571044536835
  0
VERTEX
  8
__
  6
CONTINUOUS
 62
               4
 10
-60.99544554925842
 20
-78.597571044536835
 42
-0.2208027066661153
 70
               2
 50
-35.531974879456108
  0
VERTEX
  8
__
  6
CONTINUOUS
 62
               4
 10
-60.29150621098961
 20
-78.135304344074029
  0
VERTEX
  8
__
  6
CONTINUOUS
 62
               4
 10
-60.29150621098961
 20
-78.135304344074029
 42
-0.2344536369337526
 70
               2
 50
-388.48653570684962
  0
VERTEX
  8
__
  6
CONTINUOUS
 62
               4
 10
-46.785570995899889
 20
-82.52364871152713
  0
VERTEX
  8
__
  6
CONTINUOUS
 62
               4
 10
-46.785570995899889
 20
-82.52364871152713
 42
-0.2208027066982177
 70
               2
 50
58.529439070010604
  0
VERTEX
  8
__
  6
CONTINUOUS
 62
               4
 10
-46.487785657280256
 20
-83.311395489529332
  0
VERTEX
  8
__
  6
CONTINUOUS
 62
               4
 10
-46.487785657280256
 20
-83.311395489529332
 42
-0.2208027066985877
 70
               2
 50
-4.2023930569931895
  0
VERTEX
  8
__
  6
CONTINUOUS
 62
               4
 10
-46.897321420794469
 20
-84.047263380221466
  0
VERTEX
  8
__
  6
CONTINUOUS
 62
               4
 10
-48.10950804102049
 20
-84.927968511694871
  0
VERTEX
  8
__
  6
CONTINUOUS
 62
               4
 10
-48.10950804102049
 20
-84.927968511694871
 42
-0.3606535252722405
 70
               2
 50
-78.860875041095639
  0
VERTEX
  8
__
  6
CONTINUOUS
 62
               4
 10
-49.383468119032841
 20
-84.846388187178491
  0
VERTEX
  8
__
  6
CONTINUOUS
 62
               4
 10
-49.383468119032841
 20
-84.846388187178491
 42
0.2247002456888842
 70
               2
 50
60.741154416722033
  0
VERTEX
  8
__
  6
CONTINUOUS
 62
               4
 10
-59.555035297453287
 20
-81.54144566933428
  0
VERTEX
  8
__
  6
CONTINUOUS
 62
               4
 10
-59.555035297453287
 20
-81.54144566933428
 42
-0.3606535253532567
 70
               2
 50
-445.5315339285371
  0
VERTEX
  8
__
  6
CONTINUOUS
 62
               4
 10
-60.633642362315186
 20
-80.858630592647387
  0
SEQEND
  8
__
  6
CONTINUOUS
 62
               4
  0
POLYLINE
  8
__
  6
CONTINUOUS
 62
               4
 66
               1
 70
             129
  0
VERTEX
  8
__
  6
CONTINUOUS
 62
               4
 10
-65.364336878039921
 20
-108.09512617640621
  0
VERTEX
  8
__
  6
CONTINUOUS
 62
               4
 10
-65.364336878039921
 20
-108.09512617640621
 42
0.2208027067112332
 70
               2
 50
109.54904192980166
  0
VERTEX
  8
__
  6
CONTINUOUS
 62
               4
 10
-64.523124441364416
 20
-108.13490972155068
  0
VERTEX
  8
__
  6
CONTINUOUS
 62
               4
 10
-64.523124441364416
 20
-108.13490972155068
 42
0.2208027067114423
 70
               2
 50
-140.43488205838952
  0
VERTEX
  8
__
  6
CONTINUOUS
 62
               4
 10
-63.949825999531186
 20
-107.51802238120899
  0
VERTEX
  8
__
  6
CONTINUOUS
 62
               4
 10
-63.486811911059704
 20
-106.09301154363993
  0
VERTEX
  8
__
  6
CONTINUOUS
 62
               4
 10
-63.486811911059704
 20
-106.09301154363993
 42
0.3606535255043817
 70
               2
 50
-18.61652727480103
  0
VERTEX
  8
__
  6
CONTINUOUS
 62
               4
 10
-63.958074724876496
 20
-104.90661321723746
  0
VERTEX
  8
__
  6
CONTINUOUS
 62
               4
 10
-63.958074724876496
 20
-104.90661321723746
 42
-0.2247002456868928
 70
               2
 50
104.77471273381227
  0
VERTEX
  8
__
  6
CONTINUOUS
 62
               4
 10
-70.244448959910642
 20
-96.25416137474258
  0
VERTEX
  8
__
  6
CONTINUOUS
 62
               4
 10
-70.244448959910642
 20
-96.25416137474258
 42
0.3606535252994306
 70
               2
 50
10.797079697879573
  0
VERTEX
  8
__
  6
CONTINUOUS
 62
               4
 10
-71.227152601471971
 20
-95.439346559923251
  0
VERTEX
  8
__
  6
CONTINUOUS
 62
               4
 10
-72.725497665421244
 20
-95.439346559923251
  0
VERTEX
  8
__
  6
CONTINUOUS
 62
               4
 10
-72.725497665421244
 20
-95.439346559923251
 42
0.2208027066828662
 70
               2
 50
9.3574199307792870E+17
  0
VERTEX
  8
__
  6
CONTINUOUS
 62
               4
 10
-73.489351351749065
 20
-95.793957107026472
  0
VERTEX
  8
__
  6
CONTINUOUS
 62
               4
 10
-73.489351351749065
 20
-95.793957107026472
 42
0.2208027066830028
 70
               2
 50
-48.409914696086098
  0
VERTEX
  8
__
  6
CONTINUOUS
 62
               4
 10
-73.711463890866071
 20
-96.606291468111522
  0
VERTEX
  8
__
  6
CONTINUOUS
 62
               4
 10
-73.711463890866071
 20
-96.606291468111522
 42
0.23445363693456
 70
               2
 50
9.7013857103089816
  0
VERTEX
  8
__
  6
CONTINUOUS
 62
               4
 10
-65.364336878039921
 20
-108.09512617640621
  0
SEQEND
  8
__
  6
CONTINUOUS
 62
               4
  0
CIRCLE
  8
__
  6
CONTINUOUS
 62
               4
 10
-58.010653440076567
 20
-93.989346559923433
 40
23.989346559923433
  0
CIRCLE
  8
__
  6
CONTINUOUS
 62
               4
 10
-58.010653440076567
 20
-93.989346559923433
 40
22.725000000000364
  0
POLYLINE
  8
__-1
  6
CONTINUOUS
 62
               4
 66
               1
 70
             129
  0
VERTEX
  8
__-1
  6
CONTINUOUS
 62
               4
 10
-68.895674284140114
 20
-94.326273107019006
  0
VERTEX
  8
__-1
  6
CONTINUOUS
 62
               4
 10
-68.895674284140114
 20
-94.326273107019006
 42
0.2679491924268012
 70
               2
 50
-33.079733724661807
  0
VERTEX
  8
__-1
  6
CONTINUOUS
 62
               4
 10
-68.895674284136931
 20
-96.376273106993267
  0
VERTEX
  8
__-1
  6
CONTINUOUS
 62
               4
 10
-65.520302888900005
 20
-102.2225878580407
  0
VERTEX
  8
__-1
  6
CONTINUOUS
 62
               4
 10
-65.520302888900005
 20
-102.2225878580407
 42
0.2679491924327895
 70
               2
 50
33.07973372482806
  0
VERTEX
  8
__-1
  6
CONTINUOUS
 62
               4
 10
-63.744950811135823
 20
-103.2475878580517
  0
VERTEX
  8
__-1
  6
CONTINUOUS
 62
               4
 10
-52.276356069061876
 20
-103.2475878580517
  0
VERTEX
  8
__-1
  6
CONTINUOUS
 62
               4
 10
-52.276356069061876
 20
-103.2475878580517
 42
0.2679491924320981
 70
               2
 50
3.1191399769264294E+17
  0
VERTEX
  8
__-1
  6
CONTINUOUS
 62
               4
 10
-50.501003991309517
 20
-102.2225878580507
  0
VERTEX
  8
__-1
  6
CONTINUOUS
 62
               4
 10
-47.125632596031664
 20
-96.376273107008728
  0
VERTEX
  8
__-1
  6
CONTINUOUS
 62
               4
 10
-47.125632596031664
 20
-96.376273107008728
 42
0.267949192431146
 70
               2
 50
-33.079733725285443
  0
VERTEX
  8
__-1
  6
CONTINUOUS
 62
               4
 10
-47.125632596034393
 20
-94.326273107005363
  0
VERTEX
  8
__-1
  6
CONTINUOUS
 62
               4
 10
-52.859929967151857
 20
-84.39417871457681
  0
VERTEX
  8
__-1
  6
CONTINUOUS
 62
               4
 10
-52.859929967151857
 20
-84.39417871457681
 42
0.2679491924304098
 70
               2
 50
33.079733725490676
  0
VERTEX
  8
__-1
  6
CONTINUOUS
 62
               4
 10
-54.635282044907399
 20
-83.369178714580812
  0
VERTEX
  8
__-1
  6
CONTINUOUS
 62
               4
 10
-61.386024835365788
 20
-83.369178714580812
  0
VERTEX
  8
__-1
  6
CONTINUOUS
 62
               4
 10
-61.386024835365788
 20
-83.369178714580812
 42
0.2679491924283969
 70
               2
 50
9.3574199307792870E+17
  0
VERTEX
  8
__-1
  6
CONTINUOUS
 62
               4
 10
-63.161376913170898
 20
-84.39417871459591
  0
SEQEND
  8
__-1
  6
CONTINUOUS
 62
               4
  0
ENDSEC
  0
EOF
