  0
SECTION
  2
HEADER
  9
$ACADVER
  1
AC1002
  9
$INSBASE
 10
0.0
 20
0.0
  9
$EXTMIN
 10
-95.614508323294103
 20
-138.61178812696289
  9
$EXTMAX
 10
-12.16383920215867
 20
-78.732897918631807
  9
$LIMMIN
 10
0.0
 20
0.0
  9
$LIMMAX
 10
0.0
 20
0.0
  9
$VIEWCTR
 10
6.5912879999999996
 20
4.5791839999999997
  9
$VIEWSIZE
 40
9.1583690000000004
  9
$SNAPMODE
 70
               0
  9
$SNAPUNIT
 10
1.0
 20
1.0
  9
$SNAPBASE
 10
0.0
 20
0.0
  9
$SNAPANG
 50
0.0
  9
$SNAPSTYLE
 70
               0
  9
$SNAPISOPAIR
 70
               0
  9
$GRIDMODE
 70
               0
  9
$GRIDUNIT
 10
0.0
 20
0.0
  9
$ORTHOMODE
 70
               0
  9
$REGENMODE
 70
               1
  9
$FILLMODE
 70
               1
  9
$QTEXTMODE
 70
               0
  9
$DRAGMODE
 70
               2
  9
$LTSCALE
 40
5.0800000000000001
  9
$OSMODE
 70
               0
  9
$ATTMODE
 70
               1
  9
$TEXTSIZE
 40
0.2
  9
$TRACEWID
 40
1.0
  9
$TEXTSTYLE
  7
STANDARD
  9
$CLAYER
  8
__
  9
$CELTYPE
  6
CONTINUOUS
  9
$CECOLOR
 62
             256
  9
$DIMSCALE
 40
1.0
  9
$DIMASZ
 40
0.18
  9
$DIMEXO
 40
0.0625
  9
$DIMDLI
 40
0.38
  9
$DIMRND
 40
0.0
  9
$DIMDLE
 40
0.0
  9
$DIMEXE
 40
0.18
  9
$DIMTP
 40
0.0
  9
$DIMTM
 40
0.0
  9
$DIMTXT
 40
0.18
  9
$DIMCEN
 40
0.09
  9
$DIMTSZ
 40
0.0
  9
$DIMTOL
 70
               0
  9
$DIMLIM
 70
               0
  9
$DIMTIH
 70
               1
  9
$DIMTOH
 70
               1
  9
$DIMSE1
 70
               0
  9
$DIMSE2
 70
               0
  9
$DIMTAD
 70
               0
  9
$DIMZIN
 70
               0
  9
$DIMBLK
  1

  9
$LUNITS
 70
               2
  9
$LUPREC
 70
               4
  9
$AXISMODE
 70
               0
  9
$AXISUNIT
 10
0.0
 20
0.0
  9
$SKETCHINC
 40
0.1
  9
$FILLETRAD
 40
0.0
  9
$AUNITS
 70
               0
  9
$AUPREC
 70
               0
  9
$MENU
  1
acad
  9
$ELEVATION
 40
0.0
  9
$THICKNESS
 40
0.0
  9
$VIEWDIR
 10
0.0
 20
0.0
 30
1.0
  9
$LIMCHECK
 70
               0
  9
$BLIPMODE
 70
               0
  9
$CHAMFERA
 40
0.0
  9
$CHAMFERB
 40
0.0
  9
$FASTZOOM
 70
               0
  9
$SKPOLY
 70
               0
  9
$TDCREATE
 40
2455462.511365741
  9
$TDUPDATE
 40
2455462.511365741
  9
$TDINDWG
 40
0.0000000000
  9
$TDUSRTIMER
 40
0.0000000000
  9
$USRTIMER
 70
               1
  9
$ANGBASE
 50
0.0
  9
$ANGDIR
 70
               0
  9
$PDMODE
 70
               1
  9
$PDSIZE
 40
-2.0
  9
$PLINEWID
 40
0.0
  9
$COORDS
 70
               0
  9
$USERI1
 70
               0
  9
$USERI2
 70
               0
  9
$USERI3
 70
               0
  9
$USERI4
 70
               0
  9
$USERI5
 70
               0
  9
$USERR1
 40
0.0
  9
$USERR2
 40
0.0
  9
$USERR3
 40
0.0
  9
$USERR4
 40
0.0
  9
$USERR5
 40
0.0
  0
ENDSEC
  0
SECTION
  2
TABLES
  0
TABLE
  2
LTYPE
 70
              12
  0
LTYPE
  2
CONTINUOUS
 70
              64
  3
Solid line
 72
              65
 73
               0
 40
0.0
  0
LTYPE
  2
STYLE_01
 70
               0
  3

 72
              65
 73
               2
 40
0.41664
 49
0.20828
 49
-0.20836
  0
LTYPE
  2
STYLE_02
 70
               0
  3

 72
              65
 73
               2
 40
0.6944250000000001
 49
0.48607
 49
-0.2083550000000001
  0
LTYPE
  2
STYLE_03
 70
               0
  3

 72
              65
 73
               2
 40
1.25
 49
1.0416400000000001
 49
-0.2083599999999999
  0
LTYPE
  2
STYLE_04
 70
               0
  3

 72
              65
 73
               2
 40
1.5277099999999999
 49
1.3194249999999998
 49
-0.208285
  0
LTYPE
  2
STYLE_05
 70
               0
  3

 72
              65
 73
               2
 40
0.20828
 49
0.069425
 49
-0.138855
  0
LTYPE
  2
STYLE_06
 70
               0
  3

 72
              65
 73
               4
 40
1.0416400000000001
 49
0.625
 49
-0.20828
 49
0.06943
 49
-0.13893
  0
LTYPE
  2
STYLE_07
 70
               0
  3

 72
              65
 73
               6
 40
1.875
 49
0.625
 49
-0.20828
 49
0.6250000000000001
 49
-0.2083599999999999
 49
0.06943
 49
-0.1389299999999999
  0
LTYPE
  2
STYLE_08
 70
               0
  3

 72
              65
 73
               6
 40
1.25
 49
0.625
 49
-0.20828
 49
0.06943
 49
-0.13893
 49
0.0694299999999999
 49
-0.13893
  0
LTYPE
  2
STYLE_09
 70
               0
  3

 72
              65
 73
               4
 40
5.0
 49
3.75
 49
-0.2777849999999998
 49
0.6944300000000003
 49
-0.2777849999999998
  0
LTYPE
  2
STYLE_10
 70
               0
  3

 72
              65
 73
               6
 40
5.9375
 49
3.75
 49
-0.2777849999999998
 49
0.6944300000000003
 49
-0.2777849999999998
 49
0.625
 49
-0.3125
  0
LTYPE
  2
STYLE_11
 70
               0
  3

 72
              65
 73
               2
 40
0.3937007874015748
 49
0.2952755905511811
 49
-0.0984251968503937
  0
ENDTAB
  0
TABLE
  2
LAYER
 70
               4
  0
LAYER
  2
0
 70
               0
 62
               7
  6
CONTINUOUS
  0
LAYER
  2
__
 70
               0
 62
               7
  6
CONTINUOUS
  0
LAYER
  2
__-1
 70
               0
 62
               7
  6
CONTINUOUS
  0
LAYER
  2
___
 70
               0
 62
               4
  6
STYLE_11
  0
ENDTAB
  0
TABLE
  2
STYLE
 70
               1
  0
STYLE
  2
STANDARD
 70
               0
 40
0.0
 41
1.0
 50
0.0
 71
               0
 42
0.0
  3
txt
  4
BIGFONT.SHX
  0
ENDTAB
  0
TABLE
  2
VIEW
 70
               0
  0
ENDTAB
  0
ENDSEC
  0
SECTION
  2
BLOCKS
  0
ENDSEC
  0
SECTION
  2
ENTITIES
  0
POLYLINE
  8
__-1
  6
CONTINUOUS
 62
               4
 66
               1
 70
             129
  0
VERTEX
  8
__-1
  6
CONTINUOUS
 62
               4
 10
-54.840798856757829
 20
-110.66973955955746
  0
VERTEX
  8
__-1
  6
CONTINUOUS
 62
               4
 10
-54.840798856757829
 20
-110.66973955955746
 42
-0.2001762407954641
 70
               2
 50
-13.495043239485538
  0
VERTEX
  8
__-1
  6
CONTINUOUS
 62
               4
 10
-62.964983571743687
 20
-121.89584350250061
  0
VERTEX
  8
__-1
  6
CONTINUOUS
 62
               4
 10
-62.964983571743687
 20
-121.89584350250061
 42
-0.2001762407954888
 70
               2
 50
-93.615723518844817
  0
VERTEX
  8
__-1
  6
CONTINUOUS
 62
               4
 10
-76.658206179885383
 20
-124.02268191310668
  0
VERTEX
  8
__-1
  6
CONTINUOUS
 62
               4
 10
-76.658206179885383
 20
-124.02268191310668
 42
0.3772592542589275
 70
               2
 50
233.08016075173117
  0
VERTEX
  8
__-1
  6
CONTINUOUS
 62
               4
 10
-77.82966671946815
 20
-124.63324068698012
  0
VERTEX
  8
__-1
  6
CONTINUOUS
 62
               4
 10
-77.82966671946815
 20
-124.63324068698012
 42
0.3772592542591162
 70
               2
 50
-22.146325179037451
  0
VERTEX
  8
__-1
  6
CONTINUOUS
 62
               4
 10
-77.373388567654729
 20
-125.87296326091746
  0
VERTEX
  8
__-1
  6
CONTINUOUS
 62
               4
 10
-77.373388567654729
 20
-125.87296326091746
 42
0.2535501402020088
 70
               2
 50
105.72346457191657
  0
VERTEX
  8
__-1
  6
CONTINUOUS
 62
               4
 10
-30.361460923076265
 20
-125.87295173088933
  0
VERTEX
  8
__-1
  6
CONTINUOUS
 62
               4
 10
-30.361460923076265
 20
-125.87295173088933
 42
0.3772592671786118
 70
               2
 50
-105.72334077620864
  0
VERTEX
  8
__-1
  6
CONTINUOUS
 62
               4
 10
-29.905183395675522
 20
-124.63322889094252
  0
VERTEX
  8
__-1
  6
CONTINUOUS
 62
               4
 10
-29.905183395675522
 20
-124.63322889094252
 42
0.3772592671781726
 70
               2
 50
22.146360461716185
  0
VERTEX
  8
__-1
  6
CONTINUOUS
 62
               4
 10
-31.076644306301205
 20
-124.0226707554848
  0
VERTEX
  8
__-1
  6
CONTINUOUS
 62
               4
 10
-31.076644306301205
 20
-124.0226707554848
 42
-0.2001762128203173
 70
               2
 50
-233.07957657914673
  0
VERTEX
  8
__-1
  6
CONTINUOUS
 62
               4
 10
-44.769872716068676
 20
-121.89584034579275
  0
VERTEX
  8
__-1
  6
CONTINUOUS
 62
               4
 10
-44.769872716068676
 20
-121.89584034579275
 42
-0.2001762128203518
 70
               2
 50
93.615868297275469
  0
VERTEX
  8
__-1
  6
CONTINUOUS
 62
               4
 10
-52.894068406177212
 20
-110.66973878458884
  0
VERTEX
  8
__-1
  6
CONTINUOUS
 62
               4
 10
-52.894068406177212
 20
-110.66973878458884
 42
0.3479750817194921
 70
               2
 50
13.495091387724923
  0
VERTEX
  8
__-1
  6
CONTINUOUS
 62
               4
 10
-53.867433938289651
 20
-109.89899915156366
  0
VERTEX
  8
__-1
  6
CONTINUOUS
 62
               4
 10
-53.867433938289651
 20
-109.89899915156366
 42
0.3479750817196816
 70
               2
 50
-143927828.45486596
  0
VERTEX
  8
__-1
  6
CONTINUOUS
 62
               4
 10
-54.840798856757829
 20
-110.66973955955746
  0
SEQEND
  8
__-1
  6
CONTINUOUS
 62
               4
  0
POLYLINE
  8
__-1
  6
CONTINUOUS
 62
               4
 66
               1
 70
             129
  0
VERTEX
  8
__-1
  6
CONTINUOUS
 62
               4
 10
-50.373495993727374
 20
-106.54305217907859
  0
VERTEX
  8
__-1
  6
CONTINUOUS
 62
               4
 10
-50.373495993727374
 20
-102.36267388584656
  0
VERTEX
  8
__-1
  6
CONTINUOUS
 62
               4
 10
-50.373495993727374
 20
-102.36267388584656
 42
-0.2681196374579398
 70
               2
  0
VERTEX
  8
__-1
  6
CONTINUOUS
 62
               4
 10
-49.372394064509535
 20
-100.62998734637313
  0
VERTEX
  8
__-1
  6
CONTINUOUS
 62
               4
 10
-49.372394064509535
 20
-100.62998734637313
 42
0.2025404588629686
 70
               2
 50
-99.385141321985913
  0
VERTEX
  8
__-1
  6
CONTINUOUS
 62
               4
 10
-45.143860662272346
 20
-95.046321531552167
  0
VERTEX
  8
__-1
  6
CONTINUOUS
 62
               4
 10
-45.143860662272346
 20
-95.046321531552167
 42
0.2350973151054649
 70
               2
 50
-14.537599018014149
  0
VERTEX
  8
__-1
  6
CONTINUOUS
 62
               4
 10
-46.841812634895177
 20
-87.207897918631261
  0
VERTEX
  8
__-1
  6
CONTINUOUS
 62
               4
 10
-50.744936383893219
 20
-82.332897918630806
  0
VERTEX
  8
__-1
  6
CONTINUOUS
 62
               4
 10
-50.744936383893219
 20
-82.332897918630806
 42
0.2277350772923174
 70
               2
 50
45.873336971270263
  0
VERTEX
  8
__-1
  6
CONTINUOUS
 62
               4
 10
-53.867435383092925
 20
-80.832897918630351
  0
VERTEX
  8
__-1
  6
CONTINUOUS
 62
               4
 10
-53.867435383092925
 20
-80.832897918630351
 42
0.2277350772923365
 70
               2
 50
9.3574199307792870E+17
  0
VERTEX
  8
__-1
  6
CONTINUOUS
 62
               4
 10
-56.989934382292631
 20
-82.332897918630351
  0
VERTEX
  8
__-1
  6
CONTINUOUS
 62
               4
 10
-60.893058131291582
 20
-87.207897918630806
  0
VERTEX
  8
__-1
  6
CONTINUOUS
 62
               4
 10
-60.893058131291582
 20
-87.207897918630806
 42
0.2350973151056505
 70
               2
 50
-45.873336971282384
  0
VERTEX
  8
__-1
  6
CONTINUOUS
 62
               4
 10
-62.591010103914414
 20
-95.046321531551712
  0
VERTEX
  8
__-1
  6
CONTINUOUS
 62
               4
 10
-62.591010103914414
 20
-95.046321531551712
 42
0.2025404588615795
 70
               2
 50
14.537599018011987
  0
VERTEX
  8
__-1
  6
CONTINUOUS
 62
               4
 10
-58.36247670171997
 20
-100.62998734634857
  0
VERTEX
  8
__-1
  6
CONTINUOUS
 62
               4
 10
-58.36247670171997
 20
-100.62998734634857
 42
-0.2681196374811838
 70
               2
 50
99.385141347294024
  0
VERTEX
  8
__-1
  6
CONTINUOUS
 62
               4
 10
-57.361374772459385
 20
-102.3626738857256
  0
VERTEX
  8
__-1
  6
CONTINUOUS
 62
               4
 10
-57.361374772459385
 20
-106.54305217909541
  0
VERTEX
  8
__-1
  6
CONTINUOUS
 62
               4
 10
-57.361374772459385
 20
-106.54305217909541
 42
-0.2857225141363277
 70
               2
  0
VERTEX
  8
__-1
  6
CONTINUOUS
 62
               4
 10
-65.734870766182212
 20
-120.00000000001
  0
VERTEX
  8
__-1
  6
CONTINUOUS
 62
               4
 10
-65.734870766182212
 20
-120.00000000001
 42
-0.2857225141363086
 70
               2
 50
-116.35491573471457
  0
VERTEX
  8
__-1
  6
CONTINUOUS
 62
               4
 10
-81.506634059765929
 20
-118.43272133210303
  0
VERTEX
  8
__-1
  6
CONTINUOUS
 62
               4
 10
-81.506634059765929
 20
-118.43272133210303
 42
-0.0498616075982791
 70
               2
 50
74.489726411532828
  0
VERTEX
  8
__-1
  6
CONTINUOUS
 62
               4
 10
-88.073198948733079
 20
-112.24997142496613
  0
VERTEX
  8
__-1
  6
CONTINUOUS
 62
               4
 10
-88.073198948733079
 20
-112.24997142496613
 42
0.4142135623730967
 70
               2
 50
51.780479749648663
  0
VERTEX
  8
__-1
  6
CONTINUOUS
 62
               4
 10
-93.017406055724678
 20
-111.99997399681934
  0
VERTEX
  8
__-1
  6
CONTINUOUS
 62
               4
 10
-93.017406055724678
 20
-111.99997399681934
 42
0.4142135623731489
 70
               2
 50
-63.398530988605529
  0
VERTEX
  8
__-1
  6
CONTINUOUS
 62
               4
 10
-93.267403483871931
 20
-116.94418110381048
  0
VERTEX
  8
__-1
  6
CONTINUOUS
 62
               4
 10
-93.267403483871931
 20
-116.94418110381048
 42
0.2163849855006002
 70
               2
 50
50.090123674594501
  0
VERTEX
  8
__-1
  6
CONTINUOUS
 62
               4
 10
-53.867435383093834
 20
-134.8328979186299
  0
VERTEX
  8
__-1
  6
CONTINUOUS
 62
               4
 10
-53.867435383093834
 20
-134.8328979186299
 42
0.216384985500595
 70
               2
 50
3.1191399769264294E+17
  0
VERTEX
  8
__-1
  6
CONTINUOUS
 62
               4
 10
-14.467467282315738
 20
-116.94418110381048
  0
VERTEX
  8
__-1
  6
CONTINUOUS
 62
               4
 10
-14.467467282315738
 20
-116.94418110381048
 42
0.4142135623729847
 70
               2
 50
-50.090123674585506
  0
VERTEX
  8
__-1
  6
CONTINUOUS
 62
               4
 10
-14.798852990869818
 20
-112.0055392349409
  0
VERTEX
  8
__-1
  6
CONTINUOUS
 62
               4
 10
-14.798852990869818
 20
-112.0055392349409
 42
0.4142135623729771
 70
               2
 50
65.537996498859115
  0
VERTEX
  8
__-1
  6
CONTINUOUS
 62
               4
 10
-19.737494859739854
 20
-112.33692494349543
  0
VERTEX
  8
__-1
  6
CONTINUOUS
 62
               4
 10
-19.737494859739854
 20
-112.33692494349543
 42
-0.0492238231156289
 70
               2
 50
-50.090123684975985
  0
VERTEX
  8
__-1
  6
CONTINUOUS
 62
               4
 10
-26.228236706408097
 20
-118.43272133209211
  0
VERTEX
  8
__-1
  6
CONTINUOUS
 62
               4
 10
-26.228236706408097
 20
-118.43272133209211
 42
-0.2857225141363082
 70
               2
 50
-74.489726411565201
  0
VERTEX
  8
__-1
  6
CONTINUOUS
 62
               4
 10
-42.0
 20
-120.0
  0
VERTEX
  8
__-1
  6
CONTINUOUS
 62
               4
 10
-42.0
 20
-120.0
 42
-0.2857225141363183
 70
               2
 50
116.35491573470455
  0
VERTEX
  8
__-1
  6
CONTINUOUS
 62
               4
 10
-50.373495993727374
 20
-106.54305217907859
  0
SEQEND
  8
__-1
  6
CONTINUOUS
 62
               4
  0
CIRCLE
  8
___
  6
CONTINUOUS
 62
               4
 10
-53.867435383092925
 20
-92.832897918630351
 40
5.0
  0
CIRCLE
  8
___
  6
CONTINUOUS
 62
               4
 10
-53.86743538310202
 20
-101.33289791908055
 40
1.5
  0
CIRCLE
  8
___
  6
CONTINUOUS
 62
               4
 10
-90.670301216302505
 20
-114.59707626438831
 40
1.5
  0
CIRCLE
  8
___
  6
CONTINUOUS
 62
               4
 10
-17.102481071027796
 20
-114.64055302365296
 40
1.5
  0
CIRCLE
  8
__-1
  6
CONTINUOUS
 62
               4
 10
-53.867435383092925
 20
-84.832897918630351
 40
1.5499999999997272
  0
POLYLINE
  8
__-1
  6
CONTINUOUS
 62
               4
 66
               1
 70
             129
  0
VERTEX
  8
__-1
  6
CONTINUOUS
 62
               4
 10
-86.131647183247878
 20
-117.13296601937463
  0
VERTEX
  8
__-1
  6
CONTINUOUS
 62
               4
 10
-86.131647183247878
 20
-117.13296601937463
 42
0.414213562373099
 70
               2
 50
61.504354193082783
  0
VERTEX
  8
__-1
  6
CONTINUOUS
 62
               4
 10
-88.251637672844481
 20
-117.20806810906106
  0
VERTEX
  8
__-1
  6
CONTINUOUS
 62
               4
 10
-88.251637672844481
 20
-117.20806810906106
 42
0.4142135623730912
 70
               2
 50
-53.375186083691553
  0
VERTEX
  8
__-1
  6
CONTINUOUS
 62
               4
 10
-88.176535583158511
 20
-119.32805859865766
  0
VERTEX
  8
__-1
  6
CONTINUOUS
 62
               4
 10
-88.176535583158511
 20
-119.32805859865766
 42
0.0435518528436442
 70
               2
 50
61.503610071713702
  0
VERTEX
  8
__-1
  6
CONTINUOUS
 62
               4
 10
-81.278438688922506
 20
-124.71432746194796
  0
VERTEX
  8
__-1
  6
CONTINUOUS
 62
               4
 10
-81.278438688922506
 20
-124.71432746194796
 42
0.414213562373095
 70
               2
 50
88.238980861859432
  0
VERTEX
  8
__-1
  6
CONTINUOUS
 62
               4
 10
-79.203499899450435
 20
-124.27315967094319
  0
VERTEX
  8
__-1
  6
CONTINUOUS
 62
               4
 10
-79.203499899450435
 20
-124.27315967094319
 42
0.4142135623731151
 70
               2
 50
-37.203584152355944
  0
VERTEX
  8
__-1
  6
CONTINUOUS
 62
               4
 10
-79.644667690455208
 20
-122.19822088147066
  0
VERTEX
  8
__-1
  6
CONTINUOUS
 62
               4
 10
-79.644667690455208
 20
-122.19822088147066
 42
-0.0435520148145147
 70
               2
 50
88.2399319222028
  0
VERTEX
  8
__-1
  6
CONTINUOUS
 62
               4
 10
-86.131647183247878
 20
-117.13296601937463
  0
SEQEND
  8
__-1
  6
CONTINUOUS
 62
               4
  0
POLYLINE
  8
__-1
  6
CONTINUOUS
 62
               4
 66
               1
 70
             129
  0
VERTEX
  8
__-1
  6
CONTINUOUS
 62
               4
 10
-26.456405248250121
 20
-124.71431327426581
  0
VERTEX
  8
__-1
  6
CONTINUOUS
 62
               4
 10
-26.456405248250121
 20
-124.71431327426581
 42
0.0435518528436456
 70
               2
 50
-88.239877970388861
  0
VERTEX
  8
__-1
  6
CONTINUOUS
 62
               4
 10
-19.558308354015026
 20
-119.32804441097551
  0
VERTEX
  8
__-1
  6
CONTINUOUS
 62
               4
 10
-19.558308354015026
 20
-119.32804441097551
 42
0.4142135623729655
 70
               2
 50
-61.504354193082598
  0
VERTEX
  8
__-1
  6
CONTINUOUS
 62
               4
 10
-19.483206264328146
 20
-117.20805392137891
  0
VERTEX
  8
__-1
  6
CONTINUOUS
 62
               4
 10
-19.483206264328146
 20
-117.20805392137891
 42
0.414213562373095
 70
               2
 50
53.375186083669334
  0
VERTEX
  8
__-1
  6
CONTINUOUS
 62
               4
 10
-21.603196753924749
 20
-117.13295183169248
  0
VERTEX
  8
__-1
  6
CONTINUOUS
 62
               4
 10
-21.603196753924749
 20
-117.13295183169248
 42
-0.0435520148144736
 70
               2
 50
-61.503564766379405
  0
VERTEX
  8
__-1
  6
CONTINUOUS
 62
               4
 10
-28.090176246718329
 20
-122.19820669378851
  0
VERTEX
  8
__-1
  6
CONTINUOUS
 62
               4
 10
-28.090176246718329
 20
-122.19820669378851
 42
0.4142135623731235
 70
               2
 50
-88.238980861859474
  0
VERTEX
  8
__-1
  6
CONTINUOUS
 62
               4
 10
-28.531344037723102
 20
-124.27314548326103
  0
VERTEX
  8
__-1
  6
CONTINUOUS
 62
               4
 10
-28.531344037723102
 20
-124.27314548326103
 42
0.4142135623729946
 70
               2
 50
37.203584152370638
  0
VERTEX
  8
__-1
  6
CONTINUOUS
 62
               4
 10
-26.456405248250121
 20
-124.71431327426581
  0
SEQEND
  8
__-1
  6
CONTINUOUS
 62
               4
  0
POLYLINE
  8
___
  6
CONTINUOUS
 62
               4
 66
               1
 70
             129
  0
VERTEX
  8
___
  6
CONTINUOUS
 62
               4
 10
-49.105624409322445
 20
-81.020397918628078
  0
VERTEX
  8
___
  6
CONTINUOUS
 62
               4
 10
-45.202500660320311
 20
-85.895397918627168
  0
VERTEX
  8
___
  6
CONTINUOUS
 62
               4
 10
-45.202500660320311
 20
-85.895397918627168
 42
-0.2268033183615789
 70
               2
 50
45.873336971315538
  0
VERTEX
  8
___
  6
CONTINUOUS
 62
               4
 10
-43.027729779786114
 20
-95.222622261226206
  0
VERTEX
  8
___
  6
CONTINUOUS
 62
               4
 10
-43.027729779786114
 20
-95.222622261226206
 42
-0.2268033183614618
 70
               2
 50
-12.631442590901766
  0
VERTEX
  8
___
  6
CONTINUOUS
 62
               4
 10
-48.92284675494011
 20
-102.77075700891419
  0
VERTEX
  8
___
  6
CONTINUOUS
 62
               4
 10
-48.92284675494011
 20
-102.77075700891419
 42
-0.2598226404172292
 70
               2
 50
-115.15565760831868
  0
VERTEX
  8
___
  6
CONTINUOUS
 62
               4
 10
-49.895351684521756
 20
-102.72529084607322
  0
VERTEX
  8
___
  6
CONTINUOUS
 62
               4
 10
-49.895351684521756
 20
-102.72529084607322
 42
-0.2598226404173398
 70
               2
 50
92.386614655768781
  0
VERTEX
  8
___
  6
CONTINUOUS
 62
               4
 10
-50.368304534083109
 20
-101.87432162682035
  0
VERTEX
  8
___
  6
CONTINUOUS
 62
               4
 10
-50.367649801031348
 20
-101.29633923393658
  0
VERTEX
  8
___
  6
CONTINUOUS
 62
               4
 10
-50.367649801031348
 20
-101.29633923393658
 42
0.4111593562775684
 70
               2
 50
0.598510484205938
  0
VERTEX
  8
___
  6
CONTINUOUS
 62
               4
 10
-53.86745861657937
 20
-97.832921396681286
  0
VERTEX
  8
___
  6
CONTINUOUS
 62
               4
 10
-53.86745861657937
 20
-97.832921396681286
 42
-0.3521645384379689
 70
               2
 50
-61449544443060.93
  0
VERTEX
  8
___
  6
CONTINUOUS
 62
               4
 10
-58.750854195954162
 20
-93.906442528324078
  0
VERTEX
  8
___
  6
CONTINUOUS
 62
               4
 10
-58.750854195954162
 20
-93.906442528324078
 42
-0.3002994275919363
 70
               2
 50
12.595381450450974
  0
VERTEX
  8
___
  6
CONTINUOUS
 62
               4
 10
-56.773689948193351
 20
-88.764282870335137
  0
VERTEX
  8
___
  6
CONTINUOUS
 62
               4
 10
-56.773689948193351
 20
-88.764282870335137
 42
0.3659788751731962
 70
               2
 50
-80.212408904511562
  0
VERTEX
  8
___
  6
CONTINUOUS
 62
               4
 10
-56.455717803771222
 20
-87.513055165359674
  0
VERTEX
  8
___
  6
CONTINUOUS
 62
               4
 10
-57.167514488310644
 20
-86.050059317689829
  0
VERTEX
  8
___
  6
CONTINUOUS
 62
               4
 10
-57.167514488310644
 20
-86.050059317689829
 42
0.1613397188320442
 70
               2
 50
27.876323750995098
  0
VERTEX
  8
___
  6
CONTINUOUS
 62
               4
 10
-57.387061778102179
 20
-85.824881941841795
  0
VERTEX
  8
___
  6
CONTINUOUS
 62
               4
 10
-58.718264903324325
 20
-85.134996258743286
  0
VERTEX
  8
___
  6
CONTINUOUS
 62
               4
 10
-58.718264903324325
 20
-85.134996258743286
 42
0.3576232299881391
 70
               2
 50
110.55791215641376
  0
VERTEX
  8
___
  6
CONTINUOUS
 62
               4
 10
-59.338639247154333
 20
-85.266423701302301
  0
VERTEX
  8
___
  6
CONTINUOUS
 62
               4
 10
-60.891504622014509
 20
-87.205947875798302
  0
VERTEX
  8
___
  6
CONTINUOUS
 62
               4
 10
-60.891504622014509
 20
-87.205947875798302
 42
-0.2681608620580721
 70
               2
 50
-45.761825450818023
  0
VERTEX
  8
___
  6
CONTINUOUS
 62
               4
 10
-61.870025825541688
 20
-87.588701312385183
  0
VERTEX
  8
___
  6
CONTINUOUS
 62
               4
 10
-61.870025825541688
 20
-87.588701312385183
 42
-0.2681608620586563
 70
               2
 50
376.2110318948844
  0
VERTEX
  8
___
  6
CONTINUOUS
 62
               4
 10
-62.690242145733009
 20
-86.932005700200079
  0
VERTEX
  8
___
  6
CONTINUOUS
 62
               4
 10
-62.690242145733009
 20
-86.932005700200079
 42
-0.2681608620581578
 70
               2
 50
22.333289677600796
  0
VERTEX
  8
___
  6
CONTINUOUS
 62
               4
 10
-62.530814801772522
 20
-85.89345533504229
  0
VERTEX
  8
___
  6
CONTINUOUS
 62
               4
 10
-58.62924635688114
 20
-81.020397918634899
  0
VERTEX
  8
___
  6
CONTINUOUS
 62
               4
 10
-58.62924635688114
 20
-81.020397918634899
 42
-0.2277350772926721
 70
               2
 50
-45.87333697115816
  0
VERTEX
  8
___
  6
CONTINUOUS
 62
               4
 10
-53.867435383102929
 20
-78.732897918631807
  0
VERTEX
  8
___
  6
CONTINUOUS
 62
               4
 10
-53.867435383102929
 20
-78.732897918631807
 42
-0.2277350772925869
 70
               2
 50
-48269839506777.641
  0
VERTEX
  8
___
  6
CONTINUOUS
 62
               4
 10
-49.105624409322445
 20
-81.020397918628078
  0
SEQEND
  8
___
  6
CONTINUOUS
 62
               4
  0
ENDSEC
  0
EOF
