  0
SECTION
  2
HEADER
  9
$ACADVER
  1
AC1002
  9
$INSBASE
 10
0.0
 20
0.0
  9
$EXTMIN
 10
-73.0
 20
-130.87889020833154
  9
$EXTMAX
 10
10.450669121134979
 20
-71.000000000000455
  9
$LIMMIN
 10
0.0
 20
0.0
  9
$LIMMAX
 10
0.0
 20
0.0
  9
$VIEWCTR
 10
6.5912879999999996
 20
4.5791839999999997
  9
$VIEWSIZE
 40
9.1583690000000004
  9
$SNAPMODE
 70
               0
  9
$SNAPUNIT
 10
1.0
 20
1.0
  9
$SNAPBASE
 10
0.0
 20
0.0
  9
$SNAPANG
 50
0.0
  9
$SNAPSTYLE
 70
               0
  9
$SNAPISOPAIR
 70
               0
  9
$GRIDMODE
 70
               0
  9
$GRIDUNIT
 10
0.0
 20
0.0
  9
$ORTHOMODE
 70
               0
  9
$REGENMODE
 70
               1
  9
$FILLMODE
 70
               1
  9
$QTEXTMODE
 70
               0
  9
$DRAGMODE
 70
               2
  9
$LTSCALE
 40
5.0800000000000001
  9
$OSMODE
 70
               0
  9
$ATTMODE
 70
               1
  9
$TEXTSIZE
 40
0.2
  9
$TRACEWID
 40
1.0
  9
$TEXTSTYLE
  7
STANDARD
  9
$CLAYER
  8
__
  9
$CELTYPE
  6
CONTINUOUS
  9
$CECOLOR
 62
             256
  9
$DIMSCALE
 40
1.0
  9
$DIMASZ
 40
0.18
  9
$DIMEXO
 40
0.0625
  9
$DIMDLI
 40
0.38
  9
$DIMRND
 40
0.0
  9
$DIMDLE
 40
0.0
  9
$DIMEXE
 40
0.18
  9
$DIMTP
 40
0.0
  9
$DIMTM
 40
0.0
  9
$DIMTXT
 40
0.18
  9
$DIMCEN
 40
0.09
  9
$DIMTSZ
 40
0.0
  9
$DIMTOL
 70
               0
  9
$DIMLIM
 70
               0
  9
$DIMTIH
 70
               1
  9
$DIMTOH
 70
               1
  9
$DIMSE1
 70
               0
  9
$DIMSE2
 70
               0
  9
$DIMTAD
 70
               0
  9
$DIMZIN
 70
               0
  9
$DIMBLK
  1

  9
$LUNITS
 70
               2
  9
$LUPREC
 70
               4
  9
$AXISMODE
 70
               0
  9
$AXISUNIT
 10
0.0
 20
0.0
  9
$SKETCHINC
 40
0.1
  9
$FILLETRAD
 40
0.0
  9
$AUNITS
 70
               0
  9
$AUPREC
 70
               0
  9
$MENU
  1
acad
  9
$ELEVATION
 40
0.0
  9
$THICKNESS
 40
0.0
  9
$VIEWDIR
 10
0.0
 20
0.0
 30
1.0
  9
$LIMCHECK
 70
               0
  9
$BLIPMODE
 70
               0
  9
$CHAMFERA
 40
0.0
  9
$CHAMFERB
 40
0.0
  9
$FASTZOOM
 70
               0
  9
$SKPOLY
 70
               0
  9
$TDCREATE
 40
2455462.514282407
  9
$TDUPDATE
 40
2455462.514282407
  9
$TDINDWG
 40
0.0000000000
  9
$TDUSRTIMER
 40
0.0000000000
  9
$USRTIMER
 70
               1
  9
$ANGBASE
 50
0.0
  9
$ANGDIR
 70
               0
  9
$PDMODE
 70
               1
  9
$PDSIZE
 40
-2.0
  9
$PLINEWID
 40
0.0
  9
$COORDS
 70
               0
  9
$USERI1
 70
               0
  9
$USERI2
 70
               0
  9
$USERI3
 70
               0
  9
$USERI4
 70
               0
  9
$USERI5
 70
               0
  9
$USERR1
 40
0.0
  9
$USERR2
 40
0.0
  9
$USERR3
 40
0.0
  9
$USERR4
 40
0.0
  9
$USERR5
 40
0.0
  0
ENDSEC
  0
SECTION
  2
TABLES
  0
TABLE
  2
LTYPE
 70
              12
  0
LTYPE
  2
CONTINUOUS
 70
              64
  3
Solid line
 72
              65
 73
               0
 40
0.0
  0
LTYPE
  2
STYLE_01
 70
               0
  3

 72
              65
 73
               2
 40
0.41664
 49
0.20828
 49
-0.20836
  0
LTYPE
  2
STYLE_02
 70
               0
  3

 72
              65
 73
               2
 40
0.6944250000000001
 49
0.48607
 49
-0.2083550000000001
  0
LTYPE
  2
STYLE_03
 70
               0
  3

 72
              65
 73
               2
 40
1.25
 49
1.0416400000000001
 49
-0.2083599999999999
  0
LTYPE
  2
STYLE_04
 70
               0
  3

 72
              65
 73
               2
 40
1.5277099999999999
 49
1.3194249999999998
 49
-0.208285
  0
LTYPE
  2
STYLE_05
 70
               0
  3

 72
              65
 73
               2
 40
0.20828
 49
0.069425
 49
-0.138855
  0
LTYPE
  2
STYLE_06
 70
               0
  3

 72
              65
 73
               4
 40
1.0416400000000001
 49
0.625
 49
-0.20828
 49
0.06943
 49
-0.13893
  0
LTYPE
  2
STYLE_07
 70
               0
  3

 72
              65
 73
               6
 40
1.875
 49
0.625
 49
-0.20828
 49
0.6250000000000001
 49
-0.2083599999999999
 49
0.06943
 49
-0.1389299999999999
  0
LTYPE
  2
STYLE_08
 70
               0
  3

 72
              65
 73
               6
 40
1.25
 49
0.625
 49
-0.20828
 49
0.06943
 49
-0.13893
 49
0.0694299999999999
 49
-0.13893
  0
LTYPE
  2
STYLE_09
 70
               0
  3

 72
              65
 73
               4
 40
5.0
 49
3.75
 49
-0.2777849999999998
 49
0.6944300000000003
 49
-0.2777849999999998
  0
LTYPE
  2
STYLE_10
 70
               0
  3

 72
              65
 73
               6
 40
5.9375
 49
3.75
 49
-0.2777849999999998
 49
0.6944300000000003
 49
-0.2777849999999998
 49
0.625
 49
-0.3125
  0
LTYPE
  2
STYLE_11
 70
               0
  3

 72
              65
 73
               2
 40
0.3937007874015748
 49
0.2952755905511811
 49
-0.0984251968503937
  0
ENDTAB
  0
TABLE
  2
LAYER
 70
               4
  0
LAYER
  2
0
 70
               0
 62
               7
  6
CONTINUOUS
  0
LAYER
  2
__
 70
               0
 62
               7
  6
CONTINUOUS
  0
LAYER
  2
__-1
 70
               0
 62
               7
  6
CONTINUOUS
  0
LAYER
  2
___
 70
               0
 62
               4
  6
STYLE_11
  0
ENDTAB
  0
TABLE
  2
STYLE
 70
               1
  0
STYLE
  2
STANDARD
 70
               0
 40
0.0
 41
1.0
 50
0.0
 71
               0
 42
0.0
  3
txt
  4
BIGFONT.SHX
  0
ENDTAB
  0
TABLE
  2
VIEW
 70
               0
  0
ENDTAB
  0
ENDSEC
  0
SECTION
  2
BLOCKS
  0
ENDSEC
  0
SECTION
  2
ENTITIES
  0
POLYLINE
  8
__-1
  6
CONTINUOUS
 62
               4
 66
               1
 70
             129
  0
VERTEX
  8
__-1
  6
CONTINUOUS
 62
               4
 10
-34.79034320843175
 20
-98.810154260447234
  0
VERTEX
  8
__-1
  6
CONTINUOUS
 62
               4
 10
-34.790343208431295
 20
-94.62977596721521
  0
VERTEX
  8
__-1
  6
CONTINUOUS
 62
               4
 10
-34.790343208431295
 20
-94.62977596721521
 42
0.2681196374583522
 70
               2
  0
VERTEX
  8
__-1
  6
CONTINUOUS
 62
               4
 10
-35.791445137649134
 20
-92.897089427741776
  0
VERTEX
  8
__-1
  6
CONTINUOUS
 62
               4
 10
-35.791445137649134
 20
-92.897089427741776
 42
-0.202540458862921
 70
               2
 50
99.385141321976846
  0
VERTEX
  8
__-1
  6
CONTINUOUS
 62
               4
 10
-40.019978539886779
 20
-87.313423612920815
  0
VERTEX
  8
__-1
  6
CONTINUOUS
 62
               4
 10
-40.019978539886779
 20
-87.313423612920815
 42
-0.2350973151054499
 70
               2
 50
14.537599018012447
  0
VERTEX
  8
__-1
  6
CONTINUOUS
 62
               4
 10
-38.322026567263947
 20
-79.474999999999909
  0
VERTEX
  8
__-1
  6
CONTINUOUS
 62
               4
 10
-34.418902818265451
 20
-74.599999999999454
  0
VERTEX
  8
__-1
  6
CONTINUOUS
 62
               4
 10
-34.418902818265451
 20
-74.599999999999454
 42
-0.2277350772924294
 70
               2
 50
-45.873336971244932
  0
VERTEX
  8
__-1
  6
CONTINUOUS
 62
               4
 10
-31.2964038190662
 20
-73.099999999999
  0
VERTEX
  8
__-1
  6
CONTINUOUS
 62
               4
 10
-31.2964038190662
 20
-73.099999999999
 42
-0.2277350772923014
 70
               2
 50
848037497131757.5
  0
VERTEX
  8
__-1
  6
CONTINUOUS
 62
               4
 10
-28.173904819866493
 20
-74.599999999999
  0
VERTEX
  8
__-1
  6
CONTINUOUS
 62
               4
 10
-24.270781070867542
 20
-79.474999999999454
  0
VERTEX
  8
__-1
  6
CONTINUOUS
 62
               4
 10
-24.270781070867542
 20
-79.474999999999454
 42
-0.2350973151056592
 70
               2
 50
45.873336971283891
  0
VERTEX
  8
__-1
  6
CONTINUOUS
 62
               4
 10
-22.572829098244711
 20
-87.31342361292036
  0
VERTEX
  8
__-1
  6
CONTINUOUS
 62
               4
 10
-22.572829098244711
 20
-87.31342361292036
 42
-0.2025404588615351
 70
               2
 50
-14.537599018014093
  0
VERTEX
  8
__-1
  6
CONTINUOUS
 62
               4
 10
-26.801362500438699
 20
-92.897089427717219
  0
VERTEX
  8
__-1
  6
CONTINUOUS
 62
               4
 10
-26.801362500438699
 20
-92.897089427717219
 42
0.2681196374811899
 70
               2
 50
-99.385141347296056
  0
VERTEX
  8
__-1
  6
CONTINUOUS
 62
               4
 10
-27.802464429699285
 20
-94.629775967094247
  0
VERTEX
  8
__-1
  6
CONTINUOUS
 62
               4
 10
-27.802464429699739
 20
-98.81015426046406
  0
VERTEX
  8
__-1
  6
CONTINUOUS
 62
               4
 10
-27.802464429699739
 20
-98.81015426046406
 42
0.2857225141363096
 70
               2
  0
VERTEX
  8
__-1
  6
CONTINUOUS
 62
               4
 10
-19.428968435976913
 20
-112.26710208137865
  0
VERTEX
  8
__-1
  6
CONTINUOUS
 62
               4
 10
-19.428968435976913
 20
-112.26710208137865
 42
0.2857225141363151
 70
               2
 50
116.35491573471081
  0
VERTEX
  8
__-1
  6
CONTINUOUS
 62
               4
 10
-3.6572051423931953
 20
-110.69982341347168
  0
VERTEX
  8
__-1
  6
CONTINUOUS
 62
               4
 10
-3.6572051423931953
 20
-110.69982341347168
 42
0.049861607598296
 70
               2
 50
-74.48972641154343
  0
VERTEX
  8
__-1
  6
CONTINUOUS
 62
               4
 10
2.9093597465744097
 20
-104.51707350633478
  0
VERTEX
  8
__-1
  6
CONTINUOUS
 62
               4
 10
2.9093597465744097
 20
-104.51707350633478
 42
-0.414213562373095
 70
               2
 50
-51.780479749648478
  0
VERTEX
  8
__-1
  6
CONTINUOUS
 62
               4
 10
7.8535668535655532
 20
-104.26707607818798
  0
VERTEX
  8
__-1
  6
CONTINUOUS
 62
               4
 10
7.8535668535655532
 20
-104.26707607818798
 42
-0.4142135623730975
 70
               2
 50
63.398530988594445
  0
VERTEX
  8
__-1
  6
CONTINUOUS
 62
               4
 10
8.1035642817128064
 20
-109.21128318517913
  0
VERTEX
  8
__-1
  6
CONTINUOUS
 62
               4
 10
8.1035642817128064
 20
-109.21128318517913
 42
-0.2163849855005951
 70
               2
 50
-50.090123674595567
  0
VERTEX
  8
__-1
  6
CONTINUOUS
 62
               4
 10
-31.29640381906529
 20
-127.09999999999854
  0
VERTEX
  8
__-1
  6
CONTINUOUS
 62
               4
 10
-31.29640381906529
 20
-127.09999999999854
 42
-0.2163849855006001
 70
               2
 50
-6587165474810273.0
  0
VERTEX
  8
__-1
  6
CONTINUOUS
 62
               4
 10
-70.696371919843386
 20
-109.21128318517913
  0
VERTEX
  8
__-1
  6
CONTINUOUS
 62
               4
 10
-70.696371919843386
 20
-109.21128318517913
 42
-0.4142135623729973
 70
               2
 50
50.090123674578287
  0
VERTEX
  8
__-1
  6
CONTINUOUS
 62
               4
 10
-70.364986211288851
 20
-104.27264131630955
  0
VERTEX
  8
__-1
  6
CONTINUOUS
 62
               4
 10
-70.364986211288851
 20
-104.27264131630955
 42
-0.4142135623729939
 70
               2
 50
-65.537996498856117
  0
VERTEX
  8
__-1
  6
CONTINUOUS
 62
               4
 10
-65.42634434241927
 20
-104.60402702486408
  0
VERTEX
  8
__-1
  6
CONTINUOUS
 62
               4
 10
-65.42634434241927
 20
-104.60402702486408
 42
0.0492238231156289
 70
               2
 50
50.090123684975858
  0
VERTEX
  8
__-1
  6
CONTINUOUS
 62
               4
 10
-58.935602495751027
 20
-110.69982341346076
  0
VERTEX
  8
__-1
  6
CONTINUOUS
 62
               4
 10
-58.935602495751027
 20
-110.69982341346076
 42
0.285722514136302
 70
               2
 50
74.489726411566778
  0
VERTEX
  8
__-1
  6
CONTINUOUS
 62
               4
 10
-43.163839202159124
 20
-112.26710208136865
  0
VERTEX
  8
__-1
  6
CONTINUOUS
 62
               4
 10
-43.163839202159124
 20
-112.26710208136865
 42
0.2857225141363173
 70
               2
 50
-116.35491573470387
  0
VERTEX
  8
__-1
  6
CONTINUOUS
 62
               4
 10
-34.79034320843175
 20
-98.810154260447234
  0
SEQEND
  8
__-1
  6
CONTINUOUS
 62
               4
  0
CIRCLE
  8
___
  6
CONTINUOUS
 62
               4
 10
-31.296403819065745
 20
-85.099999999999
 40
5.0
  0
POLYLINE
  8
__-1
  6
CONTINUOUS
 62
               4
 66
               1
 70
             129
  0
VERTEX
  8
__-1
  6
CONTINUOUS
 62
               4
 10
-30.323040345400841
 20
-102.9368416409261
  0
VERTEX
  8
__-1
  6
CONTINUOUS
 62
               4
 10
-30.323040345400841
 20
-102.9368416409261
 42
0.2001762407954809
 70
               2
 50
13.495043239481969
  0
VERTEX
  8
__-1
  6
CONTINUOUS
 62
               4
 10
-22.198855630415437
 20
-114.16294558386926
  0
VERTEX
  8
__-1
  6
CONTINUOUS
 62
               4
 10
-22.198855630415437
 20
-114.16294558386926
 42
0.2001762407954723
 70
               2
 50
93.615723518852406
  0
VERTEX
  8
__-1
  6
CONTINUOUS
 62
               4
 10
-8.5056330222732868
 20
-116.28978399447533
  0
VERTEX
  8
__-1
  6
CONTINUOUS
 62
               4
 10
-8.5056330222732868
 20
-116.28978399447533
 42
-0.3772592542585412
 70
               2
 50
-233.08016075240909
  0
VERTEX
  8
__-1
  6
CONTINUOUS
 62
               4
 10
-7.3341724826905192
 20
-116.90034276834876
  0
VERTEX
  8
__-1
  6
CONTINUOUS
 62
               4
 10
-7.3341724826905192
 20
-116.90034276834876
 42
-0.3772592542587986
 70
               2
 50
22.146325179001188
  0
VERTEX
  8
__-1
  6
CONTINUOUS
 62
               4
 10
-7.7904506345039408
 20
-118.14006534228611
  0
VERTEX
  8
__-1
  6
CONTINUOUS
 62
               4
 10
-7.7904506345039408
 20
-118.14006534228611
 42
-0.2535501402020063
 70
               2
 50
-105.72346457191779
  0
VERTEX
  8
__-1
  6
CONTINUOUS
 62
               4
 10
-54.802378279082404
 20
-118.14005381225797
  0
VERTEX
  8
__-1
  6
CONTINUOUS
 62
               4
 10
-54.802378279082404
 20
-118.14005381225797
 42
-0.377259267178854
 70
               2
 50
105.72334077631436
  0
VERTEX
  8
__-1
  6
CONTINUOUS
 62
               4
 10
-55.258655806483148
 20
-116.90033097231117
  0
VERTEX
  8
__-1
  6
CONTINUOUS
 62
               4
 10
-55.258655806483148
 20
-116.90033097231117
 42
-0.3772592671785575
 70
               2
 50
-22.146360461671271
  0
VERTEX
  8
__-1
  6
CONTINUOUS
 62
               4
 10
-54.087194895857465
 20
-116.28977283685344
  0
VERTEX
  8
__-1
  6
CONTINUOUS
 62
               4
 10
-54.087194895857465
 20
-116.28977283685344
 42
0.2001762128203142
 70
               2
 50
233.07957657915799
  0
VERTEX
  8
__-1
  6
CONTINUOUS
 62
               4
 10
-40.393966486090449
 20
-114.1629424271614
  0
VERTEX
  8
__-1
  6
CONTINUOUS
 62
               4
 10
-40.393966486090449
 20
-114.1629424271614
 42
0.2001762128203392
 70
               2
 50
-93.615868297276094
  0
VERTEX
  8
__-1
  6
CONTINUOUS
 62
               4
 10
-32.269770795981458
 20
-102.93684086595749
  0
VERTEX
  8
__-1
  6
CONTINUOUS
 62
               4
 10
-32.269770795981458
 20
-102.93684086595749
 42
-0.3479750817198149
 70
               2
 50
-13.495091387676746
  0
VERTEX
  8
__-1
  6
CONTINUOUS
 62
               4
 10
-31.296405263869474
 20
-102.16610123293231
  0
VERTEX
  8
__-1
  6
CONTINUOUS
 62
               4
 10
-31.296405263869474
 20
-102.16610123293231
 42
-0.3479750817195395
 70
               2
 50
143927820.78399485
  0
VERTEX
  8
__-1
  6
CONTINUOUS
 62
               4
 10
-30.323040345400841
 20
-102.9368416409261
  0
SEQEND
  8
__-1
  6
CONTINUOUS
 62
               4
  0
CIRCLE
  8
__-1
  6
CONTINUOUS
 62
               4
 10
-31.296403819065745
 20
-77.099999999999
 40
1.5499999999997272
  0
POLYLINE
  8
__-1
  6
CONTINUOUS
 62
               4
 66
               1
 70
             129
  0
VERTEX
  8
__-1
  6
CONTINUOUS
 62
               4
 10
0.9678079810892086
 20
-109.40006810074328
  0
VERTEX
  8
__-1
  6
CONTINUOUS
 62
               4
 10
0.9678079810892086
 20
-109.40006810074328
 42
-0.4142135623732208
 70
               2
 50
-61.504354193057068
  0
VERTEX
  8
__-1
  6
CONTINUOUS
 62
               4
 10
3.0877984706858115
 20
-109.47517019042971
  0
VERTEX
  8
__-1
  6
CONTINUOUS
 62
               4
 10
3.0877984706858115
 20
-109.47517019042971
 42
-0.4142135623729699
 70
               2
 50
53.375186083646604
  0
VERTEX
  8
__-1
  6
CONTINUOUS
 62
               4
 10
3.0126963809993867
 20
-111.59516068002631
  0
VERTEX
  8
__-1
  6
CONTINUOUS
 62
               4
 10
3.0126963809993867
 20
-111.59516068002631
 42
-0.0435518528436574
 70
               2
 50
-61.503610071706724
  0
VERTEX
  8
__-1
  6
CONTINUOUS
 62
               4
 10
-3.8854005132361635
 20
-116.98142954331661
  0
VERTEX
  8
__-1
  6
CONTINUOUS
 62
               4
 10
-3.8854005132361635
 20
-116.98142954331661
 42
-0.4142135623731191
 70
               2
 50
-88.238980861842848
  0
VERTEX
  8
__-1
  6
CONTINUOUS
 62
               4
 10
-5.9603393027086895
 20
-116.54026175231184
  0
VERTEX
  8
__-1
  6
CONTINUOUS
 62
               4
 10
-5.9603393027086895
 20
-116.54026175231184
 42
-0.4142135623731204
 70
               2
 50
37.203584152356491
  0
VERTEX
  8
__-1
  6
CONTINUOUS
 62
               4
 10
-5.5191715117039166
 20
-114.46532296283931
  0
VERTEX
  8
__-1
  6
CONTINUOUS
 62
               4
 10
-5.5191715117039166
 20
-114.46532296283931
 42
0.0435520148144906
 70
               2
 50
-88.239931922200313
  0
VERTEX
  8
__-1
  6
CONTINUOUS
 62
               4
 10
0.9678079810892086
 20
-109.40006810074328
  0
SEQEND
  8
__-1
  6
CONTINUOUS
 62
               4
  0
POLYLINE
  8
__-1
  6
CONTINUOUS
 62
               4
 66
               1
 70
             129
  0
VERTEX
  8
__-1
  6
CONTINUOUS
 62
               4
 10
-58.707433953908549
 20
-116.98141535563445
  0
VERTEX
  8
__-1
  6
CONTINUOUS
 62
               4
 10
-58.707433953908549
 20
-116.98141535563445
 42
-0.0435518528436635
 70
               2
 50
88.23987797040165
  0
VERTEX
  8
__-1
  6
CONTINUOUS
 62
               4
 10
-65.605530848144099
 20
-111.59514649234416
  0
VERTEX
  8
__-1
  6
CONTINUOUS
 62
               4
 10
-65.605530848144099
 20
-111.59514649234416
 42
-0.414213562373095
 70
               2
 50
61.504354193083593
  0
VERTEX
  8
__-1
  6
CONTINUOUS
 62
               4
 10
-65.680632937830524
 20
-109.47515600274755
  0
VERTEX
  8
__-1
  6
CONTINUOUS
 62
               4
 10
-65.680632937830524
 20
-109.47515600274755
 42
-0.4142135623730952
 70
               2
 50
-53.375186083670016
  0
VERTEX
  8
__-1
  6
CONTINUOUS
 62
               4
 10
-63.560642448233921
 20
-109.40005391306113
  0
VERTEX
  8
__-1
  6
CONTINUOUS
 62
               4
 10
-63.560642448233921
 20
-109.40005391306113
 42
0.0435520148144942
 70
               2
 50
61.50356476637004
  0
VERTEX
  8
__-1
  6
CONTINUOUS
 62
               4
 10
-57.073662955440795
 20
-114.46530877515715
  0
VERTEX
  8
__-1
  6
CONTINUOUS
 62
               4
 10
-57.073662955440795
 20
-114.46530877515715
 42
-0.4142135623729685
 70
               2
 50
88.23898086180931
  0
VERTEX
  8
__-1
  6
CONTINUOUS
 62
               4
 10
-56.632495164436023
 20
-116.54024756462968
  0
VERTEX
  8
__-1
  6
CONTINUOUS
 62
               4
 10
-56.632495164436023
 20
-116.54024756462968
 42
-0.4142135623729742
 70
               2
 50
-37.203584152369622
  0
VERTEX
  8
__-1
  6
CONTINUOUS
 62
               4
 10
-58.707433953908549
 20
-116.98141535563445
  0
SEQEND
  8
__-1
  6
CONTINUOUS
 62
               4
  0
POLYLINE
  8
___
  6
CONTINUOUS
 62
               4
 66
               1
 70
             129
  0
VERTEX
  8
___
  6
CONTINUOUS
 62
               4
 10
-36.058214792836679
 20
-73.287499999996726
  0
VERTEX
  8
___
  6
CONTINUOUS
 62
               4
 10
-39.961338541838359
 20
-78.162499999995816
  0
VERTEX
  8
___
  6
CONTINUOUS
 62
               4
 10
-39.961338541838359
 20
-78.162499999995816
 42
0.2268033183615885
 70
               2
 50
-45.873336971317293
  0
VERTEX
  8
___
  6
CONTINUOUS
 62
               4
 10
-42.136109422372556
 20
-87.489724342594855
  0
VERTEX
  8
___
  6
CONTINUOUS
 62
               4
 10
-42.136109422372556
 20
-87.489724342594855
 42
0.2268033183614559
 70
               2
 50
12.631442590900196
  0
VERTEX
  8
___
  6
CONTINUOUS
 62
               4
 10
-36.240992447219014
 20
-95.037859090282836
  0
VERTEX
  8
___
  6
CONTINUOUS
 62
               4
 10
-36.240992447219014
 20
-95.037859090282836
 42
0.2598226404173797
 70
               2
 50
115.15565760823034
  0
VERTEX
  8
___
  6
CONTINUOUS
 62
               4
 10
-35.268487517636913
 20
-94.99239292744187
  0
VERTEX
  8
___
  6
CONTINUOUS
 62
               4
 10
-35.268487517636913
 20
-94.99239292744187
 42
0.2598226404174855
 70
               2
 50
-92.386614655743756
  0
VERTEX
  8
___
  6
CONTINUOUS
 62
               4
 10
-34.795534668076016
 20
-94.141423708188995
  0
VERTEX
  8
___
  6
CONTINUOUS
 62
               4
 10
-34.796189401127322
 20
-93.563441315305226
  0
VERTEX
  8
___
  6
CONTINUOUS
 62
               4
 10
-34.796189401127322
 20
-93.563441315305226
 42
-0.4111593562775743
 70
               2
 50
-0.5985104842052532
  0
VERTEX
  8
___
  6
CONTINUOUS
 62
               4
 10
-31.2963805855793
 20
-90.100023478049934
  0
VERTEX
  8
___
  6
CONTINUOUS
 62
               4
 10
-31.2963805855793
 20
-90.100023478049934
 42
0.3521645384374706
 70
               2
 50
3.1191399769264294E+17
  0
VERTEX
  8
___
  6
CONTINUOUS
 62
               4
 10
-26.412985006204963
 20
-86.173544609692726
  0
VERTEX
  8
___
  6
CONTINUOUS
 62
               4
 10
-26.412985006204963
 20
-86.173544609692726
 42
0.3002994275919063
 70
               2
 50
-12.595381450447794
  0
VERTEX
  8
___
  6
CONTINUOUS
 62
               4
 10
-28.390149253965774
 20
-81.031384951703785
  0
VERTEX
  8
___
  6
CONTINUOUS
 62
               4
 10
-28.390149253965774
 20
-81.031384951703785
 42
-0.3659788751731003
 70
               2
 50
80.212408904481677
  0
VERTEX
  8
___
  6
CONTINUOUS
 62
               4
 10
-28.708121398387902
 20
-79.780157246728322
  0
VERTEX
  8
___
  6
CONTINUOUS
 62
               4
 10
-27.996324713848026
 20
-78.317161399058477
  0
VERTEX
  8
___
  6
CONTINUOUS
 62
               4
 10
-27.996324713848026
 20
-78.317161399058477
 42
-0.1613397188321267
 70
               2
 50
-27.876323750909975
  0
VERTEX
  8
___
  6
CONTINUOUS
 62
               4
 10
-27.776777424056945
 20
-78.091984023210443
  0
VERTEX
  8
___
  6
CONTINUOUS
 62
               4
 10
-26.445574298834345
 20
-77.402098340111934
  0
VERTEX
  8
___
  6
CONTINUOUS
 62
               4
 10
-26.445574298834345
 20
-77.402098340111934
 42
-0.3576232299881485
 70
               2
 50
-110.557912156412
  0
VERTEX
  8
___
  6
CONTINUOUS
 62
               4
 10
-25.825199955004337
 20
-77.533525782670949
  0
VERTEX
  8
___
  6
CONTINUOUS
 62
               4
 10
-24.272334580144616
 20
-79.47304995716695
  0
VERTEX
  8
___
  6
CONTINUOUS
 62
               4
 10
-24.272334580144616
 20
-79.47304995716695
 42
0.2681608620578291
 70
               2
 50
45.761825450875214
  0
VERTEX
  8
___
  6
CONTINUOUS
 62
               4
 10
-23.293813376616981
 20
-79.855803393753831
  0
VERTEX
  8
___
  6
CONTINUOUS
 62
               4
 10
-23.293813376616981
 20
-79.855803393753831
 42
0.268160862058531
 70
               2
 50
-376.21103189429715
  0
VERTEX
  8
___
  6
CONTINUOUS
 62
               4
 10
-22.47359705642566
 20
-79.199107781568728
  0
VERTEX
  8
___
  6
CONTINUOUS
 62
               4
 10
-22.47359705642566
 20
-79.199107781568728
 42
0.2681608620583293
 70
               2
 50
-22.33328967762181
  0
VERTEX
  8
___
  6
CONTINUOUS
 62
               4
 10
-22.633024400386148
 20
-78.160557416410938
  0
VERTEX
  8
___
  6
CONTINUOUS
 62
               4
 10
-26.53459284527753
 20
-73.287500000003547
  0
VERTEX
  8
___
  6
CONTINUOUS
 62
               4
 10
-26.53459284527753
 20
-73.287500000003547
 42
0.227735077292598
 70
               2
 50
45.873336971174822
  0
VERTEX
  8
___
  6
CONTINUOUS
 62
               4
 10
-31.296403819056195
 20
-71.000000000000455
  0
VERTEX
  8
___
  6
CONTINUOUS
 62
               4
 10
-31.296403819056195
 20
-71.000000000000455
 42
0.2277350772919625
 70
               2
 50
9.3574199307792870E+17
  0
VERTEX
  8
___
  6
CONTINUOUS
 62
               4
 10
-36.058214792836679
 20
-73.287499999996726
  0
SEQEND
  8
___
  6
CONTINUOUS
 62
               4
  0
CIRCLE
  8
__-1
  6
CONTINUOUS
 62
               4
 10
5.5064620141433807
 20
-106.86417834575695
 40
1.25
  0
CIRCLE
  8
__-1
  6
CONTINUOUS
 62
               4
 10
-68.061358131131328
 20
-106.90765510502206
 40
1.25
  0
CIRCLE
  8
__-1
  6
CONTINUOUS
 62
               4
 10
-31.296403819057105
 20
-93.600000000449199
 40
1.25
  0
ENDSEC
  0
EOF
