  0
SECTION
  2
HEADER
  9
$ACADVER
  1
AC1002
  9
$INSBASE
 10
0.0
 20
0.0
  9
$EXTMIN
 10
-273.1954043117122
 20
-290.64354710474527
  9
$EXTMAX
 10
158.89996468167411
 20
-15.49354710474563
  9
$LIMMIN
 10
0.0
 20
0.0
  9
$LIMMAX
 10
0.0
 20
0.0
  9
$VIEWCTR
 10
6.5912879999999996
 20
4.5791839999999997
  9
$VIEWSIZE
 40
9.1583690000000004
  9
$SNAPMODE
 70
               0
  9
$SNAPUNIT
 10
1.0
 20
1.0
  9
$SNAPBASE
 10
0.0
 20
0.0
  9
$SNAPANG
 50
0.0
  9
$SNAPSTYLE
 70
               0
  9
$SNAPISOPAIR
 70
               0
  9
$GRIDMODE
 70
               0
  9
$GRIDUNIT
 10
0.0
 20
0.0
  9
$ORTHOMODE
 70
               0
  9
$REGENMODE
 70
               1
  9
$FILLMODE
 70
               1
  9
$QTEXTMODE
 70
               0
  9
$DRAGMODE
 70
               2
  9
$LTSCALE
 40
5.0800000000000001
  9
$OSMODE
 70
               0
  9
$ATTMODE
 70
               1
  9
$TEXTSIZE
 40
0.2
  9
$TRACEWID
 40
1.0
  9
$TEXTSTYLE
  7
STANDARD
  9
$CLAYER
  8
__
  9
$CELTYPE
  6
CONTINUOUS
  9
$CECOLOR
 62
             256
  9
$DIMSCALE
 40
1.0
  9
$DIMASZ
 40
0.18
  9
$DIMEXO
 40
0.0625
  9
$DIMDLI
 40
0.38
  9
$DIMRND
 40
0.0
  9
$DIMDLE
 40
0.0
  9
$DIMEXE
 40
0.18
  9
$DIMTP
 40
0.0
  9
$DIMTM
 40
0.0
  9
$DIMTXT
 40
0.18
  9
$DIMCEN
 40
0.09
  9
$DIMTSZ
 40
0.0
  9
$DIMTOL
 70
               0
  9
$DIMLIM
 70
               0
  9
$DIMTIH
 70
               1
  9
$DIMTOH
 70
               1
  9
$DIMSE1
 70
               0
  9
$DIMSE2
 70
               0
  9
$DIMTAD
 70
               0
  9
$DIMZIN
 70
               0
  9
$DIMBLK
  1

  9
$LUNITS
 70
               2
  9
$LUPREC
 70
               4
  9
$AXISMODE
 70
               0
  9
$AXISUNIT
 10
0.0
 20
0.0
  9
$SKETCHINC
 40
0.1
  9
$FILLETRAD
 40
0.0
  9
$AUNITS
 70
               0
  9
$AUPREC
 70
               0
  9
$MENU
  1
acad
  9
$ELEVATION
 40
0.0
  9
$THICKNESS
 40
0.0
  9
$VIEWDIR
 10
0.0
 20
0.0
 30
1.0
  9
$LIMCHECK
 70
               0
  9
$BLIPMODE
 70
               0
  9
$CHAMFERA
 40
0.0
  9
$CHAMFERB
 40
0.0
  9
$FASTZOOM
 70
               0
  9
$SKPOLY
 70
               0
  9
$TDCREATE
 40
2455462.525567130
  9
$TDUPDATE
 40
2455462.525567130
  9
$TDINDWG
 40
0.0000000000
  9
$TDUSRTIMER
 40
0.0000000000
  9
$USRTIMER
 70
               1
  9
$ANGBASE
 50
0.0
  9
$ANGDIR
 70
               0
  9
$PDMODE
 70
               1
  9
$PDSIZE
 40
-2.0
  9
$PLINEWID
 40
0.0
  9
$COORDS
 70
               0
  9
$USERI1
 70
               0
  9
$USERI2
 70
               0
  9
$USERI3
 70
               0
  9
$USERI4
 70
               0
  9
$USERI5
 70
               0
  9
$USERR1
 40
0.0
  9
$USERR2
 40
0.0
  9
$USERR3
 40
0.0
  9
$USERR4
 40
0.0
  9
$USERR5
 40
0.0
  0
ENDSEC
  0
SECTION
  2
TABLES
  0
TABLE
  2
LTYPE
 70
              15
  0
LTYPE
  2
CONTINUOUS
 70
              64
  3
Solid line
 72
              65
 73
               0
 40
0.0
  0
LTYPE
  2
STYLE_01
 70
               0
  3

 72
              65
 73
               2
 40
0.41664
 49
0.20828
 49
-0.20836
  0
LTYPE
  2
STYLE_02
 70
               0
  3

 72
              65
 73
               2
 40
0.6944250000000001
 49
0.48607
 49
-0.2083550000000001
  0
LTYPE
  2
STYLE_03
 70
               0
  3

 72
              65
 73
               2
 40
1.25
 49
1.0416400000000001
 49
-0.2083599999999999
  0
LTYPE
  2
STYLE_04
 70
               0
  3

 72
              65
 73
               2
 40
1.5277099999999999
 49
1.3194249999999998
 49
-0.208285
  0
LTYPE
  2
STYLE_05
 70
               0
  3

 72
              65
 73
               2
 40
0.20828
 49
0.069425
 49
-0.138855
  0
LTYPE
  2
STYLE_06
 70
               0
  3

 72
              65
 73
               4
 40
1.0416400000000001
 49
0.625
 49
-0.20828
 49
0.06943
 49
-0.13893
  0
LTYPE
  2
STYLE_07
 70
               0
  3

 72
              65
 73
               6
 40
1.875
 49
0.625
 49
-0.20828
 49
0.6250000000000001
 49
-0.2083599999999999
 49
0.06943
 49
-0.1389299999999999
  0
LTYPE
  2
STYLE_08
 70
               0
  3

 72
              65
 73
               6
 40
1.25
 49
0.625
 49
-0.20828
 49
0.06943
 49
-0.13893
 49
0.0694299999999999
 49
-0.13893
  0
LTYPE
  2
STYLE_09
 70
               0
  3

 72
              65
 73
               4
 40
5.0
 49
3.75
 49
-0.2777849999999998
 49
0.6944300000000003
 49
-0.2777849999999998
  0
LTYPE
  2
STYLE_10
 70
               0
  3

 72
              65
 73
               6
 40
5.9375
 49
3.75
 49
-0.2777849999999998
 49
0.6944300000000003
 49
-0.2777849999999998
 49
0.625
 49
-0.3125
  0
LTYPE
  2
STYLE_11
 70
               0
  3

 72
              65
 73
               2
 40
0.3937007874015748
 49
0.2952755905511811
 49
-0.0984251968503937
  0
LTYPE
  2
STYLE_12
 70
               0
  3

 72
              65
 73
               2
 40
0.1968503937007874
 49
0.1968503937007874
 49
-0.0005
  0
LTYPE
  2
STYLE_13
 70
               0
  3

 72
              65
 73
               2
 40
0.3690944881889763
 49
0.2460629921259842
 49
-0.1230314960629921
  0
LTYPE
  2
STYLE_14
 70
               0
  3

 72
              65
 73
               2
 40
0.1476377952755905
 49
0.0984251968503937
 49
-0.0492125984251968
  0
ENDTAB
  0
TABLE
  2
LAYER
 70
               6
  0
LAYER
  2
0
 70
               0
 62
               7
  6
CONTINUOUS
  0
LAYER
  2
__
 70
               0
 62
               7
  6
CONTINUOUS
  0
LAYER
  2
__-1
 70
               0
 62
               7
  6
CONTINUOUS
  0
LAYER
  2
___
 70
               0
 62
               4
  6
STYLE_11
  0
LAYER
  2
__-2
 70
               0
 62
               4
  6
STYLE_12
  0
LAYER
  2
CONT
 70
               0
 62
               7
  6
CONTINUOUS
  0
ENDTAB
  0
TABLE
  2
STYLE
 70
               2
  0
STYLE
  2
STANDARD
 70
               0
 40
0.0
 41
1.0
 50
0.0
 71
               0
 42
0.0
  3
txt
  4
BIGFONT.SHX
  0
STYLE
  2
_______
 70
               0
 40
0.0
 41
1.0
 50
0.0
 71
               0
 42
0.0
  3

  4
ＭＳ ゴシック
  0
ENDTAB
  0
TABLE
  2
VIEW
 70
               0
  0
ENDTAB
  0
ENDSEC
  0
SECTION
  2
BLOCKS
  0
BLOCK
  8
__
  2
___________
 70
               2
 10
0.0
 20
0.0
  0
CIRCLE
  8
__
  6
CONTINUOUS
 62
               4
 10
0.0
 20
0.0
 40
3.1499999999999999
  0
POLYLINE
  8
__
  6
CONTINUOUS
 62
               4
 66
               1
 70
             129
  0
VERTEX
  8
__
  6
CONTINUOUS
 62
               4
 10
-0.5
 20
1.96875
  0
VERTEX
  8
__
  6
CONTINUOUS
 62
               4
 10
0.5
 20
1.96875
  0
VERTEX
  8
__
  6
CONTINUOUS
 62
               4
 10
0.5
 20
1.234375
 42
0.414213562373095
 70
               2
  0
VERTEX
  8
__
  6
CONTINUOUS
 62
               4
 10
1.234375
 20
0.5
  0
VERTEX
  8
__
  6
CONTINUOUS
 62
               4
 10
1.96875
 20
0.5
  0
VERTEX
  8
__
  6
CONTINUOUS
 62
               4
 10
1.96875
 20
-0.5
  0
VERTEX
  8
__
  6
CONTINUOUS
 62
               4
 10
1.234375
 20
-0.5
 42
0.414213562373095
 70
               2
 50
9.3574199307792870E+17
  0
VERTEX
  8
__
  6
CONTINUOUS
 62
               4
 10
0.5
 20
-1.234375
  0
VERTEX
  8
__
  6
CONTINUOUS
 62
               4
 10
0.5
 20
-1.96875
  0
VERTEX
  8
__
  6
CONTINUOUS
 62
               4
 10
-0.5
 20
-1.96875
  0
VERTEX
  8
__
  6
CONTINUOUS
 62
               4
 10
-0.5
 20
-1.234375
 42
0.414213562373095
 70
               2
  0
VERTEX
  8
__
  6
CONTINUOUS
 62
               4
 10
-1.234375
 20
-0.5
  0
VERTEX
  8
__
  6
CONTINUOUS
 62
               4
 10
-1.96875
 20
-0.5
  0
VERTEX
  8
__
  6
CONTINUOUS
 62
               4
 10
-1.96875
 20
0.5
  0
VERTEX
  8
__
  6
CONTINUOUS
 62
               4
 10
-1.234375
 20
0.5
 42
0.414213562373095
 70
               2
 50
3.1191399769264294E+17
  0
VERTEX
  8
__
  6
CONTINUOUS
 62
               4
 10
-0.5
 20
1.234375
  0
SEQEND
  8
__
  6
CONTINUOUS
 62
               4
  0
ENDBLK
  8
__
  0
BLOCK
  8
__
  2
___________-1
 70
               2
 10
0.0
 20
0.0
  0
CIRCLE
  8
__
  6
CONTINUOUS
 62
               4
 10
0.0
 20
0.0
 40
3.1499999999999999
  0
POLYLINE
  8
__
  6
CONTINUOUS
 62
               4
 66
               1
 70
             129
  0
VERTEX
  8
__
  6
CONTINUOUS
 62
               4
 10
-0.5
 20
1.96875
  0
VERTEX
  8
__
  6
CONTINUOUS
 62
               4
 10
0.5
 20
1.96875
  0
VERTEX
  8
__
  6
CONTINUOUS
 62
               4
 10
0.5
 20
1.234375
 42
0.414213562373095
 70
               2
  0
VERTEX
  8
__
  6
CONTINUOUS
 62
               4
 10
1.234375
 20
0.5
  0
VERTEX
  8
__
  6
CONTINUOUS
 62
               4
 10
1.96875
 20
0.5
  0
VERTEX
  8
__
  6
CONTINUOUS
 62
               4
 10
1.96875
 20
-0.5
  0
VERTEX
  8
__
  6
CONTINUOUS
 62
               4
 10
1.234375
 20
-0.5
 42
0.414213562373095
 70
               2
 50
9.3574199307792870E+17
  0
VERTEX
  8
__
  6
CONTINUOUS
 62
               4
 10
0.5
 20
-1.234375
  0
VERTEX
  8
__
  6
CONTINUOUS
 62
               4
 10
0.5
 20
-1.96875
  0
VERTEX
  8
__
  6
CONTINUOUS
 62
               4
 10
-0.5
 20
-1.96875
  0
VERTEX
  8
__
  6
CONTINUOUS
 62
               4
 10
-0.5
 20
-1.234375
 42
0.414213562373095
 70
               2
  0
VERTEX
  8
__
  6
CONTINUOUS
 62
               4
 10
-1.234375
 20
-0.5
  0
VERTEX
  8
__
  6
CONTINUOUS
 62
               4
 10
-1.96875
 20
-0.5
  0
VERTEX
  8
__
  6
CONTINUOUS
 62
               4
 10
-1.96875
 20
0.5
  0
VERTEX
  8
__
  6
CONTINUOUS
 62
               4
 10
-1.234375
 20
0.5
 42
0.414213562373095
 70
               2
 50
3.1191399769264294E+17
  0
VERTEX
  8
__
  6
CONTINUOUS
 62
               4
 10
-0.5
 20
1.234375
  0
SEQEND
  8
__
  6
CONTINUOUS
 62
               4
  0
ENDBLK
  8
__
  0
BLOCK
  8
__
  2
___________-2
 70
               2
 10
0.0
 20
0.0
  0
CIRCLE
  8
__
  6
CONTINUOUS
 62
               4
 10
0.0
 20
0.0
 40
3.1499999999999999
  0
POLYLINE
  8
__
  6
CONTINUOUS
 62
               4
 66
               1
 70
             129
  0
VERTEX
  8
__
  6
CONTINUOUS
 62
               4
 10
-0.5
 20
1.96875
  0
VERTEX
  8
__
  6
CONTINUOUS
 62
               4
 10
0.5
 20
1.96875
  0
VERTEX
  8
__
  6
CONTINUOUS
 62
               4
 10
0.5
 20
1.234375
 42
0.414213562373095
 70
               2
  0
VERTEX
  8
__
  6
CONTINUOUS
 62
               4
 10
1.234375
 20
0.5
  0
VERTEX
  8
__
  6
CONTINUOUS
 62
               4
 10
1.96875
 20
0.5
  0
VERTEX
  8
__
  6
CONTINUOUS
 62
               4
 10
1.96875
 20
-0.5
  0
VERTEX
  8
__
  6
CONTINUOUS
 62
               4
 10
1.234375
 20
-0.5
 42
0.414213562373095
 70
               2
 50
9.3574199307792870E+17
  0
VERTEX
  8
__
  6
CONTINUOUS
 62
               4
 10
0.5
 20
-1.234375
  0
VERTEX
  8
__
  6
CONTINUOUS
 62
               4
 10
0.5
 20
-1.96875
  0
VERTEX
  8
__
  6
CONTINUOUS
 62
               4
 10
-0.5
 20
-1.96875
  0
VERTEX
  8
__
  6
CONTINUOUS
 62
               4
 10
-0.5
 20
-1.234375
 42
0.414213562373095
 70
               2
  0
VERTEX
  8
__
  6
CONTINUOUS
 62
               4
 10
-1.234375
 20
-0.5
  0
VERTEX
  8
__
  6
CONTINUOUS
 62
               4
 10
-1.96875
 20
-0.5
  0
VERTEX
  8
__
  6
CONTINUOUS
 62
               4
 10
-1.96875
 20
0.5
  0
VERTEX
  8
__
  6
CONTINUOUS
 62
               4
 10
-1.234375
 20
0.5
 42
0.414213562373095
 70
               2
 50
3.1191399769264294E+17
  0
VERTEX
  8
__
  6
CONTINUOUS
 62
               4
 10
-0.5
 20
1.234375
  0
SEQEND
  8
__
  6
CONTINUOUS
 62
               4
  0
ENDBLK
  8
__
  0
ENDSEC
  0
SECTION
  2
ENTITIES
  0
POLYLINE
  8
__-1
  6
CONTINUOUS
 62
               4
 66
               1
 70
             128
  0
VERTEX
  8
__-1
  6
CONTINUOUS
 62
               4
 10
-13.698994673465222
 20
-39.940304962487517
  0
VERTEX
  8
__-1
  6
CONTINUOUS
 62
               4
 10
2.1872398130631154
 20
-45.858928621646101
  0
VERTEX
  8
__-1
  6
CONTINUOUS
 62
               4
 10
2.1872398130631154
 20
-45.858928621646101
 42
-0.1218680523115356
 70
               2
 50
153.78815090280301
  0
VERTEX
  8
__-1
  6
CONTINUOUS
 62
               4
 10
2.5839044142101102
 20
-46.129819902120289
  0
VERTEX
  8
__-1
  6
CONTINUOUS
 62
               4
 10
2.5839044142101102
 20
-46.129819902120289
 42
0.3909124437705693
 70
               2
 50
51.180526859390618
  0
VERTEX
  8
__-1
  6
CONTINUOUS
 62
               4
 10
7.3091790055627825
 20
-46.586833841688531
  0
VERTEX
  8
__-1
  6
CONTINUOUS
 62
               4
 10
7.3091790055627825
 20
-46.586833841688531
 42
0.3909124437705903
 70
               2
 50
-75.544602168179594
  0
VERTEX
  8
__-1
  6
CONTINUOUS
 62
               4
 10
8.1433085949952329
 20
-41.913365158507077
  0
VERTEX
  8
__-1
  6
CONTINUOUS
 62
               4
 10
6.0068506454831549
 20
-38.570441833005589
  0
VERTEX
  8
__-1
  6
CONTINUOUS
 62
               4
 10
6.0068506454831549
 20
-38.570441833005589
 42
0.222400144933242
 70
               2
 50
36.61765816774556
  0
VERTEX
  8
__-1
  6
CONTINUOUS
 62
               4
 10
5.2906641822025904
 20
-38.116981063741605
  0
VERTEX
  8
__-1
  6
CONTINUOUS
 62
               4
 10
0.3991563841934749
 20
-37.49354710474563
  0
VERTEX
  8
__-1
  6
CONTINUOUS
 62
               4
 10
0.3991563841934749
 20
-37.49354710474563
 42
-0.3832880996234221
 70
               2
 50
449.54681765004528
  0
VERTEX
  8
__-1
  6
CONTINUOUS
 62
               4
 10
-0.4742132273190691
 20
-36.481532038926616
  0
VERTEX
  8
__-1
  6
CONTINUOUS
 62
               4
 10
-0.4641368745751606
 20
-35.97880796410027
  0
VERTEX
  8
__-1
  6
CONTINUOUS
 62
               4
 10
-0.4641368745751606
 20
-35.97880796410027
 42
0.3832880996232622
 70
               2
 50
-1.1484082700966556
  0
VERTEX
  8
__-1
  6
CONTINUOUS
 62
               4
 10
-1.3375064860877046
 20
-34.96679289828171
  0
VERTEX
  8
__-1
  6
CONTINUOUS
 62
               4
 10
-12.318191511080613
 20
-33.567279247213719
  0
VERTEX
  8
__-1
  6
CONTINUOUS
 62
               4
 10
-12.30918902188273
 20
-33.118131805857047
  0
VERTEX
  8
__-1
  6
CONTINUOUS
 62
               4
 10
-12.30918902188273
 20
-33.118131805857047
 42
0.1994318242627575
 70
               2
 50
-1.148408270152554
  0
VERTEX
  8
__-1
  6
CONTINUOUS
 62
               4
 10
-12.589239390753391
 20
-32.403857761670224
  0
VERTEX
  8
__-1
  6
CONTINUOUS
 62
               4
 10
-12.589239390753391
 20
-32.403857761670224
 42
0.1994318242621093
 70
               2
 50
55.264711684850241
  0
VERTEX
  8
__-1
  6
CONTINUOUS
 62
               4
 10
-13.292945159982082
 20
-32.098221033415939
  0
VERTEX
  8
__-1
  6
CONTINUOUS
 62
               4
 10
-13.292945159982082
 20
-32.098221033415939
 42
0.1661601919336423
 70
               2
 50
3570.9170181930144
  0
VERTEX
  8
__-1
  6
CONTINUOUS
 62
               4
 10
-24.315753945825236
 20
-35.668889970056625
  0
VERTEX
  8
__-1
  6
CONTINUOUS
 62
               4
 10
-24.315753945825236
 20
-35.668889970056625
 42
0.229378525886775
 70
               2
 50
-76.541213751362704
  0
VERTEX
  8
__-1
  6
CONTINUOUS
 62
               4
 10
-24.716145428533764
 20
-36.443141029914841
  0
VERTEX
  8
__-1
  6
CONTINUOUS
 62
               4
 10
-24.784058361064808
 20
-39.02434635800455
  0
VERTEX
  8
__-1
  6
CONTINUOUS
 62
               4
 10
-24.784058361064808
 20
-39.02434635800455
 42
-0.1027836576472852
 70
               2
 50
-1.5074834868734852
  0
VERTEX
  8
__-1
  6
CONTINUOUS
 62
               4
 10
-24.87726460259978
 20
-39.42036314596271
  0
VERTEX
  8
__-1
  6
CONTINUOUS
 62
               4
 10
-24.87726460259978
 20
-39.42036314596271
 42
0.3974663682070549
 70
               2
 50
-26.694369091405864
  0
VERTEX
  8
__-1
  6
CONTINUOUS
 62
               4
 10
-23.65872674202069
 20
-43.089561957887327
  0
VERTEX
  8
__-1
  6
CONTINUOUS
 62
               4
 10
-23.65872674202069
 20
-43.089561957887327
 42
0.397466368205268
 70
               2
 50
106.51488041014373
  0
VERTEX
  8
__-1
  6
CONTINUOUS
 62
               4
 10
-19.925549388760146
 20
-42.083957021404785
  0
VERTEX
  8
__-1
  6
CONTINUOUS
 62
               4
 10
-19.925549388760146
 20
-42.083957021404785
 42
-0.3604174221420442
 70
               2
 50
-35.209703455841314
  0
VERTEX
  8
__-1
  6
CONTINUOUS
 62
               4
 10
-13.663566938827444
 20
-39.953651546817127
  0
SEQEND
  8
__-1
  6
CONTINUOUS
 62
               4
  0
CIRCLE
  8
__-1
  6
CONTINUOUS
 62
               4
 10
5.1941524507401482
 20
-43.798167014619139
 40
2.499999999999972
  0
CIRCLE
  8
__-1
  6
CONTINUOUS
 62
               4
 10
-22.324723980346789
 20
-40.609603646227697
 40
1.5
  0
CIRCLE
  8
___
  6
CONTINUOUS
 62
               4
 10
57.465804215499517
 20
-37.49354710474563
 40
14.0
  0
CIRCLE
  8
___
  6
CONTINUOUS
 62
               4
 10
57.465804215499517
 20
-37.49354710474563
 40
1.4499999999998181
  0
CIRCLE
  8
___
  6
CONTINUOUS
 62
               4
 10
60.465804215499517
 20
-30.49354710474563
 40
1.5
  0
CIRCLE
  8
___
  6
CONTINUOUS
 62
               4
 10
54.465804215499517
 20
-30.49354710474563
 40
1.5
  0
POLYLINE
  8
___
  6
CONTINUOUS
 62
               4
 66
               1
 70
             129
  0
VERTEX
  8
___
  6
CONTINUOUS
 62
               4
 10
69.040396621882152
 20
-34.326717360952443
  0
VERTEX
  8
___
  6
CONTINUOUS
 62
               4
 10
69.040396621882152
 20
-34.326717360952443
 42
0.1289745303461489
 70
               2
 50
15.676230521557081
  0
VERTEX
  8
___
  6
CONTINUOUS
 62
               4
 10
65.995655426276514
 20
-29.053070914264936
  0
VERTEX
  8
___
  6
CONTINUOUS
 62
               4
 10
65.995655426276514
 20
-29.053070914264936
 42
0.3146854181380869
 70
               2
 50
56.695439445139442
  0
VERTEX
  8
___
  6
CONTINUOUS
 62
               4
 10
64.643697732393591
 20
-28.80577698659863
  0
VERTEX
  8
___
  6
CONTINUOUS
 62
               4
 10
64.643697732393591
 20
-28.80577698659863
 42
0.3146854181376573
 70
               2
 50
-125.3160354732665
  0
VERTEX
  8
___
  6
CONTINUOUS
 62
               4
 10
63.946275589921058
 20
-29.990068440549294
  0
VERTEX
  8
___
  6
CONTINUOUS
 62
               4
 10
63.946275589921058
 20
-29.990068440549294
 42
-0.1155978102257614
 70
               2
 50
4.4514049776161873
  0
VERTEX
  8
___
  6
CONTINUOUS
 62
               4
 10
63.495320672547493
 20
-32.921495064276769
  0
VERTEX
  8
___
  6
CONTINUOUS
 62
               4
 10
63.495320672547493
 20
-32.921495064276769
 42
0.2305626543268307
 70
               2
 50
-23.071696038888259
  0
VERTEX
  8
___
  6
CONTINUOUS
 62
               4
 10
63.569231687768749
 20
-33.969731610651252
  0
VERTEX
  8
___
  6
CONTINUOUS
 62
               4
 10
63.569231687768749
 20
-33.969731610651252
 42
0.2305626543262881
 70
               2
 50
33.079733725352725
  0
VERTEX
  8
___
  6
CONTINUOUS
 62
               4
 10
64.440075658493512
 20
-34.557858700640281
  0
VERTEX
  8
___
  6
CONTINUOUS
 62
               4
 10
64.440075658493512
 20
-34.557858700640281
 42
-0.1155978102257967
 70
               2
 50
404.2762465876782
  0
VERTEX
  8
___
  6
CONTINUOUS
 62
               4
 10
67.204243042658888
 20
-35.633033598096972
  0
VERTEX
  8
___
  6
CONTINUOUS
 62
               4
 10
67.204243042658888
 20
-35.633033598096972
 42
0.3146854181384112
 70
               2
 50
83.545428330000277
  0
VERTEX
  8
___
  6
CONTINUOUS
 62
               4
 10
68.578580598501318
 20
-35.621194032531093
  0
VERTEX
  8
___
  6
CONTINUOUS
 62
               4
 10
68.578580598501318
 20
-35.621194032531093
 42
0.3146854181382928
 70
               2
 50
-80.534749271164358
  0
VERTEX
  8
___
  6
CONTINUOUS
 62
               4
 10
69.040396621882152
 20
-34.326717360952443
  0
SEQEND
  8
___
  6
CONTINUOUS
 62
               4
  0
POLYLINE
  8
___
  6
CONTINUOUS
 62
               4
 66
               1
 70
             129
  0
VERTEX
  8
___
  6
CONTINUOUS
 62
               4
 10
58.410559201446446
 20
-45.001287549318931
  0
VERTEX
  8
___
  6
CONTINUOUS
 62
               4
 10
58.410559201446446
 20
-45.001287549318931
 42
0.1155978102256947
 70
               2
 50
44.87153397577778
  0
VERTEX
  8
___
  6
CONTINUOUS
 62
               4
 10
60.723771668236893
 20
-46.857539275590625
  0
VERTEX
  8
___
  6
CONTINUOUS
 62
               4
 10
60.723771668236893
 20
-46.857539275590625
 42
-0.3146854181383416
 70
               2
 50
119.81340830609793
  0
VERTEX
  8
___
  6
CONTINUOUS
 62
               4
 10
61.400687081607245
 20
-48.053670295108077
  0
VERTEX
  8
___
  6
CONTINUOUS
 62
               4
 10
61.400687081607245
 20
-48.053670295108077
 42
-0.3146854181383648
 70
               2
 50
-5.4459455534679488
  0
VERTEX
  8
___
  6
CONTINUOUS
 62
               4
 10
60.510545411105156
 20
-49.100853039019512
  0
VERTEX
  8
___
  6
CONTINUOUS
 62
               4
 10
60.510545411105156
 20
-49.100853039019512
 42
-0.1289745303461467
 70
               2
 50
-218.42567194534325
  0
VERTEX
  8
___
  6
CONTINUOUS
 62
               4
 10
54.421063019892969
 20
-49.100853039019512
  0
VERTEX
  8
___
  6
CONTINUOUS
 62
               4
 10
54.421063019892969
 20
-49.100853039019512
 42
-0.3146854181383157
 70
               2
 50
218.42567194517693
  0
VERTEX
  8
___
  6
CONTINUOUS
 62
               4
 10
53.53092134938997
 20
-48.053670295108077
  0
VERTEX
  8
___
  6
CONTINUOUS
 62
               4
 10
53.53092134938997
 20
-48.053670295108077
 42
-0.3146854181381919
 70
               2
 50
5.4459455534536279
  0
VERTEX
  8
___
  6
CONTINUOUS
 62
               4
 10
54.207836762761232
 20
-46.857539275590625
  0
VERTEX
  8
___
  6
CONTINUOUS
 62
               4
 10
54.207836762761232
 20
-46.857539275590625
 42
0.1155978102257726
 70
               2
 50
-119.81340830629
  0
VERTEX
  8
___
  6
CONTINUOUS
 62
               4
 10
56.521049229553043
 20
-45.001287549318931
  0
VERTEX
  8
___
  6
CONTINUOUS
 62
               4
 10
56.521049229553043
 20
-45.001287549318931
 42
-0.230562654326669
 70
               2
 50
-44.871533975878954
  0
VERTEX
  8
___
  6
CONTINUOUS
 62
               4
 10
57.465804215499972
 20
-44.541178092933023
  0
VERTEX
  8
___
  6
CONTINUOUS
 62
               4
 10
57.465804215499972
 20
-44.541178092933023
 42
-0.2305626543268471
 70
               2
 50
-386442837603574.81
  0
VERTEX
  8
___
  6
CONTINUOUS
 62
               4
 10
58.410559201446446
 20
-45.001287549318931
  0
SEQEND
  8
___
  6
CONTINUOUS
 62
               4
  0
POLYLINE
  8
___
  6
CONTINUOUS
 62
               4
 66
               1
 70
             129
  0
VERTEX
  8
___
  6
CONTINUOUS
 62
               4
 10
45.891211809116427
 20
-34.326717360951989
  0
VERTEX
  8
___
  6
CONTINUOUS
 62
               4
 10
45.891211809116427
 20
-34.326717360951989
 42
0.3146854181383704
 70
               2
 50
-15.676230521536544
  0
VERTEX
  8
___
  6
CONTINUOUS
 62
               4
 10
46.353027832497261
 20
-35.621194032530184
  0
VERTEX
  8
___
  6
CONTINUOUS
 62
               4
 10
46.353027832497261
 20
-35.621194032530184
 42
0.3146854181382543
 70
               2
 50
80.534749271165055
  0
VERTEX
  8
___
  6
CONTINUOUS
 62
               4
 10
47.727365388340147
 20
-35.633033598096972
  0
VERTEX
  8
___
  6
CONTINUOUS
 62
               4
 10
47.727365388340147
 20
-35.633033598096972
 42
-0.1155978102257713
 70
               2
 50
-83.545428329997847
  0
VERTEX
  8
___
  6
CONTINUOUS
 62
               4
 10
50.491532772504613
 20
-34.557858700640281
  0
VERTEX
  8
___
  6
CONTINUOUS
 62
               4
 10
50.491532772504613
 20
-34.557858700640281
 42
0.2305626543266729
 70
               2
 50
-404.2762465873306
  0
VERTEX
  8
___
  6
CONTINUOUS
 62
               4
 10
51.362376743229831
 20
-33.969731610652161
  0
VERTEX
  8
___
  6
CONTINUOUS
 62
               4
 10
51.362376743229831
 20
-33.969731610652161
 42
0.2305626543264717
 70
               2
 50
-33.079733725271062
  0
VERTEX
  8
___
  6
CONTINUOUS
 62
               4
 10
51.436287758451542
 20
-32.921495064277224
  0
VERTEX
  8
___
  6
CONTINUOUS
 62
               4
 10
51.436287758451542
 20
-32.921495064277224
 42
-0.1155978102257043
 70
               2
 50
23.071696038889282
  0
VERTEX
  8
___
  6
CONTINUOUS
 62
               4
 10
50.985332841077522
 20
-29.990068440549294
  0
VERTEX
  8
___
  6
CONTINUOUS
 62
               4
 10
50.985332841077522
 20
-29.990068440549294
 42
0.314685418138365
 70
               2
 50
-4.4514049776242013
  0
VERTEX
  8
___
  6
CONTINUOUS
 62
               4
 10
50.287910698606808
 20
-28.805776986597721
  0
VERTEX
  8
___
  6
CONTINUOUS
 62
               4
 10
50.287910698606808
 20
-28.805776986597721
 42
0.3146854181383781
 70
               2
 50
125.31603547335629
  0
VERTEX
  8
___
  6
CONTINUOUS
 62
               4
 10
48.935953004722975
 20
-29.053070914264481
  0
VERTEX
  8
___
  6
CONTINUOUS
 62
               4
 10
48.935953004722975
 20
-29.053070914264481
 42
0.1289745303461399
 70
               2
 50
-56.695439445031518
  0
VERTEX
  8
___
  6
CONTINUOUS
 62
               4
 10
45.891211809116427
 20
-34.326717360951989
  0
SEQEND
  8
___
  6
CONTINUOUS
 62
               4
  0
CIRCLE
  8
___
  6
CONTINUOUS
 62
               4
 10
49.903626389008238
 20
-38.39547089339203
 40
1.25
  0
CIRCLE
  8
___
  6
CONTINUOUS
 62
               4
 10
65.027982041990796
 20
-38.395470893392485
 40
1.25
  0
CIRCLE
  8
___
  6
CONTINUOUS
 62
               4
 10
62.027982041990796
 20
-43.591623316098776
 40
1.25
  0
CIRCLE
  8
___
  6
CONTINUOUS
 62
               4
 10
52.903626389008238
 20
-43.591623316098776
 40
1.25
  0
POLYLINE
  8
___
  6
CONTINUOUS
 62
               4
 66
               1
 70
             129
  0
VERTEX
  8
___
  6
CONTINUOUS
 62
               4
 10
-15.211892869698318
 20
-75.598765416001697
  0
VERTEX
  8
___
  6
CONTINUOUS
 62
               4
 10
-15.211892869698318
 20
-75.598765416001697
 42
0.1717579160611493
 70
               2
 50
10.700027509252148
  0
VERTEX
  8
___
  6
CONTINUOUS
 62
               4
 10
-16.930739903064136
 20
-72.630016482451083
  0
VERTEX
  8
___
  6
CONTINUOUS
 62
               4
 10
-16.930739903064136
 20
-72.630016482451083
 42
0.2606584291374076
 70
               2
 50
67.231473417421526
  0
VERTEX
  8
___
  6
CONTINUOUS
 62
               4
 10
-17.409562063061571
 20
-72.535041305763116
  0
VERTEX
  8
___
  6
CONTINUOUS
 62
               4
 10
-18.197338804251672
 20
-72.791005485210007
  0
VERTEX
  8
___
  6
CONTINUOUS
 62
               4
 10
-18.197338804251672
 20
-72.791005485210007
 42
0.2606584287502766
 70
               2
 50
-176.33827735774622
  0
VERTEX
  8
___
  6
CONTINUOUS
 62
               4
 10
-18.528889061158338
 20
-73.149286621193824
  0
VERTEX
  8
___
  6
CONTINUOUS
 62
               4
 10
-18.528889061158338
 20
-73.149286621193824
 42
0.1717579160749053
 70
               2
 50
-13.820891411685434
  0
VERTEX
  8
___
  6
CONTINUOUS
 62
               4
 10
-18.174478681040569
 20
-76.561367897894797
  0
VERTEX
  8
___
  6
CONTINUOUS
 62
               4
 10
-18.174478681040569
 20
-76.561367897894797
 42
-0.4061688201436851
 70
               2
 50
27.232785157098725
  0
VERTEX
  8
___
  6
CONTINUOUS
 62
               4
 10
-18.776381690038875
 20
-78.330550734422104
  0
VERTEX
  8
___
  6
CONTINUOUS
 62
               4
 10
-18.776381690038875
 20
-78.330550734422104
 42
-0.4061688201448072
 70
               2
 50
-112.44929879372491
  0
VERTEX
  8
___
  6
CONTINUOUS
 62
               4
 10
-20.561470382947959
 20
-77.777600917740529
  0
VERTEX
  8
___
  6
CONTINUOUS
 62
               4
 10
-20.561470382947959
 20
-77.777600917740529
 42
0.1717579160608523
 70
               2
 50
31.210368217617333
  0
VERTEX
  8
___
  6
CONTINUOUS
 62
               4
 10
-23.113584927044144
 20
-75.485305843283641
  0
VERTEX
  8
___
  6
CONTINUOUS
 62
               4
 10
-23.113584927044144
 20
-75.485305843283641
 42
0.2606584291407413
 70
               2
 50
138.74742921374397
  0
VERTEX
  8
___
  6
CONTINUOUS
 62
               4
 10
-23.598320806097149
 20
-75.542943267330884
  0
VERTEX
  8
___
  6
CONTINUOUS
 62
               4
 10
-24.26844372779135
 20
-76.029816068932632
  0
VERTEX
  8
___
  6
CONTINUOUS
 62
               4
 10
-24.26844372779135
 20
-76.029816068932632
 42
0.2606584287503461
 70
               2
 50
-78.860875041018076
  0
VERTEX
  8
___
  6
CONTINUOUS
 62
               4
 10
-24.473051800318103
 20
-76.473016341849871
  0
VERTEX
  8
___
  6
CONTINUOUS
 62
               4
 10
-24.473051800318103
 20
-76.473016341849871
 42
0.171757916075124
 70
               2
 50
4.4470859459771006
  0
VERTEX
  8
___
  6
CONTINUOUS
 62
               4
 10
-23.081596398175975
 20
-79.608579643745543
  0
VERTEX
  8
___
  6
CONTINUOUS
 62
               4
 10
-23.081596398175975
 20
-79.608579643745543
 42
-0.4061688201435187
 70
               2
 50
54.223279457714106
  0
VERTEX
  8
___
  6
CONTINUOUS
 62
               4
 10
-23.107332614418851
 20
-81.477170767688222
  0
VERTEX
  8
___
  6
CONTINUOUS
 62
               4
 10
-23.107332614418851
 20
-81.477170767688222
 42
-0.4061688201453892
 70
               2
 50
-57.295779513051919
  0
VERTEX
  8
___
  6
CONTINUOUS
 62
               4
 10
-24.975923738366077
 20
-81.502906983924731
  0
VERTEX
  8
___
  6
CONTINUOUS
 62
               4
 10
-24.975923738366077
 20
-81.502906983924731
 42
0.1717579160608321
 70
               2
 50
60.542379265880079
  0
VERTEX
  8
___
  6
CONTINUOUS
 62
               4
 10
-28.111487039988901
 20
-80.111451581808069
  0
VERTEX
  8
___
  6
CONTINUOUS
 62
               4
 10
-28.111487039988901
 20
-80.111451581808069
 42
0.2606584291397436
 70
               2
 50
738.19268191586536
  0
VERTEX
  8
___
  6
CONTINUOUS
 62
               4
 10
-28.554687312901592
 20
-80.31605965394192
  0
VERTEX
  8
___
  6
CONTINUOUS
 62
               4
 10
-29.04156011450425
 20
-80.986182575636121
  0
VERTEX
  8
___
  6
CONTINUOUS
 62
               4
 10
-29.04156011450425
 20
-80.986182575636121
 42
0.2606584287496618
 70
               2
 50
-41.627820491341716
  0
VERTEX
  8
___
  6
CONTINUOUS
 62
               4
 10
-29.099197538924386
 20
-81.470918454813727
  0
VERTEX
  8
___
  6
CONTINUOUS
 62
               4
 10
-29.099197538924386
 20
-81.470918454813727
 42
0.1717579160748843
 70
               2
 50
23.660303891096337
  0
VERTEX
  8
___
  6
CONTINUOUS
 62
               4
 10
-26.806902464358359
 20
-84.023032999161842
  0
VERTEX
  8
___
  6
CONTINUOUS
 62
               4
 10
-26.806902464358359
 20
-84.023032999161842
 42
-0.4061688201436866
 70
               2
 50
105.18319832301241
  0
VERTEX
  8
___
  6
CONTINUOUS
 62
               4
 10
-26.253952647684059
 20
-85.808121692066834
  0
VERTEX
  8
___
  6
CONTINUOUS
 62
               4
 10
-26.253952647684059
 20
-85.808121692066834
 42
-0.4061688201453144
 70
               2
 50
-29.193657810515244
  0
VERTEX
  8
___
  6
CONTINUOUS
 62
               4
 10
-28.023135484217278
 20
-86.410024701061502
  0
VERTEX
  8
___
  6
CONTINUOUS
 62
               4
 10
-28.023135484217278
 20
-86.410024701061502
 42
0.1717579160609228
 70
               2
 50
120.54611127816847
  0
VERTEX
  8
___
  6
CONTINUOUS
 62
               4
 10
-31.435216760651315
 20
-86.055614320884615
  0
VERTEX
  8
___
  6
CONTINUOUS
 62
               4
 10
-31.435216760651315
 20
-86.055614320884615
 42
0.2606584291407142
 70
               2
 50
-237.52493734039541
  0
VERTEX
  8
___
  6
CONTINUOUS
 62
               4
 10
-31.793497896752456
 20
-86.38716457741566
  0
VERTEX
  8
___
  6
CONTINUOUS
 62
               4
 10
-32.049462076199347
 20
-87.174941318605761
  0
VERTEX
  8
___
  6
CONTINUOUS
 62
               4
 10
-32.049462076199347
 20
-87.174941318605761
 42
0.2606584287490488
 70
               2
 50
-18.616527274774381
  0
VERTEX
  8
___
  6
CONTINUOUS
 62
               4
 10
-31.954486899828339
 20
-87.653763478837845
  0
VERTEX
  8
___
  6
CONTINUOUS
 62
               4
 10
-31.954486899828339
 20
-87.653763478837845
 42
0.1717579160752055
 70
               2
 50
48.828415852469334
  0
VERTEX
  8
___
  6
CONTINUOUS
 62
               4
 10
-28.985737966096281
 20
-89.372610512407391
  0
VERTEX
  8
___
  6
CONTINUOUS
 62
               4
 10
-28.985737966096281
 20
-89.372610512407391
 42
-0.4061688201439997
 70
               2
 50
306.80354298879269
  0
VERTEX
  8
___
  6
CONTINUOUS
 62
               4
 10
-27.908228697188065
 20
-90.899459855572331
  0
VERTEX
  8
___
  6
CONTINUOUS
 62
               4
 10
-27.908228697188065
 20
-90.899459855572331
 42
-0.4061688201455965
 70
               2
 50
-9.0747599711157854
  0
VERTEX
  8
___
  6
CONTINUOUS
 62
               4
 10
-29.404823303646594
 20
-92.01861119709929
  0
VERTEX
  8
___
  6
CONTINUOUS
 62
               4
 10
-29.404823303646594
 20
-92.01861119709929
 42
0.171757916060991
 70
               2
 50
439.84131966081509
  0
VERTEX
  8
___
  6
CONTINUOUS
 62
               4
 10
-32.75942426618451
 20
-92.735937996195844
  0
VERTEX
  8
___
  6
CONTINUOUS
 62
               4
 10
-32.75942426618451
 20
-92.735937996195844
 42
0.2606584291389763
 70
               2
 50
-93.272198540362169
  0
VERTEX
  8
___
  6
CONTINUOUS
 62
               4
 10
-32.997715211582658
 20
-93.161975987968162
  0
VERTEX
  8
___
  6
CONTINUOUS
 62
               4
 10
-32.997715211582658
 20
-93.990293472462781
  0
VERTEX
  8
___
  6
CONTINUOUS
 62
               4
 10
-32.997715211582658
 20
-93.990293472462781
 42
0.2606584287499891
 70
               2
  0
VERTEX
  8
___
  6
CONTINUOUS
 62
               4
 10
-32.759424266412793
 20
-94.416331464556151
  0
VERTEX
  8
___
  6
CONTINUOUS
 62
               4
 10
-32.759424266412793
 20
-94.416331464556151
 42
0.1717579160751828
 70
               2
 50
93.272198300371699
  0
VERTEX
  8
___
  6
CONTINUOUS
 62
               4
 10
-29.404823303638409
 20
-95.133658263791858
  0
VERTEX
  8
___
  6
CONTINUOUS
 62
               4
 10
-29.404823303638409
 20
-95.133658263791858
 42
-0.4061688201436002
 70
               2
 50
-439.84131968178468
  0
VERTEX
  8
___
  6
CONTINUOUS
 62
               4
 10
-27.908228697188065
 20
-96.252809605320181
  0
VERTEX
  8
___
  6
CONTINUOUS
 62
               4
 10
-27.908228697188065
 20
-96.252809605320181
 42
-0.4061688201452501
 70
               2
 50
9.0747599711352134
  0
VERTEX
  8
___
  6
CONTINUOUS
 62
               4
 10
-28.985737966102647
 20
-97.779658948485121
  0
VERTEX
  8
___
  6
CONTINUOUS
 62
               4
 10
-28.985737966102647
 20
-97.779658948485121
 42
0.17175791606101
 70
               2
 50
-306.80354299754322
  0
VERTEX
  8
___
  6
CONTINUOUS
 62
               4
 10
-31.954486899652807
 20
-99.49850598185003
  0
VERTEX
  8
___
  6
CONTINUOUS
 62
               4
 10
-31.954486899652807
 20
-99.49850598185003
 42
0.2606584291399319
 70
               2
 50
-48.82841596622351
  0
VERTEX
  8
___
  6
CONTINUOUS
 62
               4
 10
-32.049462076341229
 20
-99.97732814184792
  0
VERTEX
  8
___
  6
CONTINUOUS
 62
               4
 10
-31.793497896894337
 20
-100.76510488303802
  0
VERTEX
  8
___
  6
CONTINUOUS
 62
               4
 10
-31.793497896894337
 20
-100.76510488303802
 42
0.2606584287487179
 70
               2
 50
18.616527274970604
  0
VERTEX
  8
___
  6
CONTINUOUS
 62
               4
 10
-31.435216760910521
 20
-101.09665513994423
  0
VERTEX
  8
___
  6
CONTINUOUS
 62
               4
 10
-31.435216760910521
 20
-101.09665513994423
 42
0.1717579160751419
 70
               2
 50
237.52493614322523
  0
VERTEX
  8
___
  6
CONTINUOUS
 62
               4
 10
-28.023135484209092
 20
-100.74224475982692
  0
VERTEX
  8
___
  6
CONTINUOUS
 62
               4
 10
-28.023135484209092
 20
-100.74224475982692
 42
-0.406168820143277
 70
               2
 50
-120.54611128047655
  0
VERTEX
  8
___
  6
CONTINUOUS
 62
               4
 10
-26.253952647684059
 20
-101.34414776882613
  0
VERTEX
  8
___
  6
CONTINUOUS
 62
               4
 10
-26.253952647684059
 20
-101.34414776882613
 42
-0.4061688201455951
 70
               2
 50
29.193657810576742
  0
VERTEX
  8
___
  6
CONTINUOUS
 62
               4
 10
-26.806902464365635
 20
-103.12923646173567
  0
VERTEX
  8
___
  6
CONTINUOUS
 62
               4
 10
-26.806902464365635
 20
-103.12923646173567
 42
0.1717579160608982
 70
               2
 50
-105.18319832441256
  0
VERTEX
  8
___
  6
CONTINUOUS
 62
               4
 10
-29.099197538821613
 20
-105.6813510058314
  0
VERTEX
  8
___
  6
CONTINUOUS
 62
               4
 10
-29.099197538821613
 20
-105.6813510058314
 42
0.2606584291385344
 70
               2
 50
-23.660303968099758
  0
VERTEX
  8
___
  6
CONTINUOUS
 62
               4
 10
-29.04156011477528
 20
-106.16608688488395
  0
VERTEX
  8
___
  6
CONTINUOUS
 62
               4
 10
-28.554687313172622
 20
-106.83620980657815
  0
VERTEX
  8
___
  6
CONTINUOUS
 62
               4
 10
-28.554687313172622
 20
-106.83620980657815
 42
0.2606584287497075
 70
               2
 50
41.627820491551226
  0
VERTEX
  8
___
  6
CONTINUOUS
 62
               4
 10
-28.111487040255383
 20
-107.04081787910536
  0
VERTEX
  8
___
  6
CONTINUOUS
 62
               4
 10
-28.111487040255383
 20
-107.04081787910536
 42
0.1717579160750966
 70
               2
 50
-738.19269289681063
  0
VERTEX
  8
___
  6
CONTINUOUS
 62
               4
 10
-24.975923738359711
 20
-105.64936247696278
  0
VERTEX
  8
___
  6
CONTINUOUS
 62
               4
 10
-24.975923738359711
 20
-105.64936247696278
 42
-0.4061688201438057
 70
               2
 50
-60.542379266553787
  0
VERTEX
  8
___
  6
CONTINUOUS
 62
               4
 10
-23.107332614416123
 20
-105.67509869320475
  0
VERTEX
  8
___
  6
CONTINUOUS
 62
               4
 10
-23.107332614416123
 20
-105.67509869320475
 42
-0.4061688201450887
 70
               2
 50
57.2957795130542
  0
VERTEX
  8
___
  6
CONTINUOUS
 62
               4
 10
-23.081596398179613
 20
-107.54368981715197
  0
VERTEX
  8
___
  6
CONTINUOUS
 62
               4
 10
-23.081596398179613
 20
-107.54368981715197
 42
0.1717579160607437
 70
               2
 50
-54.223279458426312
  0
VERTEX
  8
___
  6
CONTINUOUS
 62
               4
 10
-24.473051800297185
 20
-110.67925311877525
  0
VERTEX
  8
___
  6
CONTINUOUS
 62
               4
 10
-24.473051800297185
 20
-110.67925311877525
 42
0.2606584291398961
 70
               2
 50
-4.4470860121556983
  0
VERTEX
  8
___
  6
CONTINUOUS
 62
               4
 10
-24.268443728163334
 20
-111.12245339168794
  0
VERTEX
  8
___
  6
CONTINUOUS
 62
               4
 10
-23.598320806469133
 20
-111.60932619328969
  0
VERTEX
  8
___
  6
CONTINUOUS
 62
               4
 10
-23.598320806469133
 20
-111.60932619328969
 42
0.2606584287498861
 70
               2
 50
78.860875041020762
  0
VERTEX
  8
___
  6
CONTINUOUS
 62
               4
 10
-23.113584927290617
 20
-111.66696361771073
  0
VERTEX
  8
___
  6
CONTINUOUS
 62
               4
 10
-23.113584927290617
 20
-111.66696361771073
 42
0.1717579160751361
 70
               2
 50
-138.74742966636222
  0
VERTEX
  8
___
  6
CONTINUOUS
 62
               4
 10
-20.561470382943412
 20
-109.37466854314471
  0
VERTEX
  8
___
  6
CONTINUOUS
 62
               4
 10
-20.561470382943412
 20
-109.37466854314471
 42
-0.4061688201437639
 70
               2
 50
-31.210368217991054
  0
VERTEX
  8
___
  6
CONTINUOUS
 62
               4
 10
-18.776381690039784
 20
-108.82171872646995
  0
VERTEX
  8
___
  6
CONTINUOUS
 62
               4
 10
-18.776381690039784
 20
-108.82171872646995
 42
-0.4061688201460357
 70
               2
 50
112.44929879390995
  0
VERTEX
  8
___
  6
CONTINUOUS
 62
               4
 10
-18.174478681045116
 20
-110.59090156300317
  0
VERTEX
  8
___
  6
CONTINUOUS
 62
               4
 10
-18.174478681045116
 20
-110.59090156300317
 42
0.1717579160608977
 70
               2
 50
-27.232785157508463
  0
VERTEX
  8
___
  6
CONTINUOUS
 62
               4
 10
-18.528889061222003
 20
-114.00298283943675
  0
VERTEX
  8
___
  6
CONTINUOUS
 62
               4
 10
-18.528889061222003
 20
-114.00298283943675
 42
0.2606584291397371
 70
               2
 50
13.820891342135138
  0
VERTEX
  8
___
  6
CONTINUOUS
 62
               4
 10
-18.197338804690958
 20
-114.36126397553835
  0
VERTEX
  8
___
  6
CONTINUOUS
 62
               4
 10
-17.409562063500857
 20
-114.61722815498524
  0
VERTEX
  8
___
  6
CONTINUOUS
 62
               4
 10
-17.409562063500857
 20
-114.61722815498524
 42
0.2606584287496064
 70
               2
 50
176.33827735682016
  0
VERTEX
  8
___
  6
CONTINUOUS
 62
               4
 10
-16.930739903268773
 20
-114.52225297861423
  0
VERTEX
  8
___
  6
CONTINUOUS
 62
               4
 10
-16.930739903268773
 20
-114.52225297861423
 42
0.1717579160751779
 70
               2
 50
-67.231473573321807
  0
VERTEX
  8
___
  6
CONTINUOUS
 62
               4
 10
-15.211892869698318
 20
-111.55350404488172
  0
VERTEX
  8
___
  6
CONTINUOUS
 62
               4
 10
-15.211892869698318
 20
-111.55350404488172
 42
-0.4061688201433172
 70
               2
 50
-10.700027509685068
  0
VERTEX
  8
___
  6
CONTINUOUS
 62
               4
 10
-13.685043526532468
 20
-110.47599477597487
  0
VERTEX
  8
___
  6
CONTINUOUS
 62
               4
 10
-13.685043526532468
 20
-110.47599477597487
 42
-0.4061688201453044
 70
               2
 50
361.75131468524967
  0
VERTEX
  8
___
  6
CONTINUOUS
 62
               4
 10
-12.565892185005509
 20
-111.97258938243294
  0
VERTEX
  8
___
  6
CONTINUOUS
 62
               4
 10
-12.565892185005509
 20
-111.97258938243294
 42
0.1717579160608331
 70
               2
 50
-7.4636151795291497
  0
VERTEX
  8
___
  6
CONTINUOUS
 62
               4
 10
-11.848565385908955
 20
-115.32719034497131
  0
VERTEX
  8
___
  6
CONTINUOUS
 62
               4
 10
-11.848565385908955
 20
-115.32719034497131
 42
0.2606584291389653
 70
               2
 50
35.195979095500483
  0
VERTEX
  8
___
  6
CONTINUOUS
 62
               4
 10
-11.422527394136637
 20
-115.56548129036901
  0
VERTEX
  8
___
  6
CONTINUOUS
 62
               4
 10
-10.594209909642018
 20
-115.56548129036901
  0
VERTEX
  8
___
  6
CONTINUOUS
 62
               4
 10
-10.594209909642018
 20
-115.56548129036901
 42
0.2606584287495591
 70
               2
 50
3.1191399769264294E+17
  0
VERTEX
  8
___
  6
CONTINUOUS
 62
               4
 10
-10.168171917548648
 20
-115.3271903451996
  0
VERTEX
  8
___
  6
CONTINUOUS
 62
               4
 10
-10.168171917548648
 20
-115.3271903451996
 42
0.1717579160750225
 70
               2
 50
-35.195979185968945
  0
VERTEX
  8
___
  6
CONTINUOUS
 62
               4
 10
-9.4508451183129409
 20
-111.97258938242521
  0
VERTEX
  8
___
  6
CONTINUOUS
 62
               4
 10
-9.4508451183129409
 20
-111.97258938242521
 42
-0.4061688201436865
 70
               2
 50
7.4636151791866903
  0
VERTEX
  8
___
  6
CONTINUOUS
 62
               4
 10
-8.3316937767841637
 20
-110.47599477597487
  0
VERTEX
  8
___
  6
CONTINUOUS
 62
               4
 10
-8.3316937767841637
 20
-110.47599477597487
 42
-0.4061688201454446
 70
               2
 50
-361.75131468451855
  0
VERTEX
  8
___
  6
CONTINUOUS
 62
               4
 10
-6.8048444336192233
 20
-111.55350404488945
  0
VERTEX
  8
___
  6
CONTINUOUS
 62
               4
 10
-6.8048444336192233
 20
-111.55350404488945
 42
0.1717579160609438
 70
               2
 50
10.700027509262295
  0
VERTEX
  8
___
  6
CONTINUOUS
 62
               4
 10
-5.085997400254314
 20
-114.52225297844006
  0
VERTEX
  8
___
  6
CONTINUOUS
 62
               4
 10
-5.085997400254314
 20
-114.52225297844006
 42
0.2606584291385332
 70
               2
 50
67.231473417135049
  0
VERTEX
  8
___
  6
CONTINUOUS
 62
               4
 10
-4.6071752402568791
 20
-114.61722815512803
  0
VERTEX
  8
___
  6
CONTINUOUS
 62
               4
 10
-3.8193984990667786
 20
-114.36126397568114
  0
VERTEX
  8
___
  6
CONTINUOUS
 62
               4
 10
-3.8193984990667786
 20
-114.36126397568114
 42
0.2606584287497429
 70
               2
 50
-176.33827735714812
  0
VERTEX
  8
___
  6
CONTINUOUS
 62
               4
 10
-3.487848242160112
 20
-114.00298283969732
  0
VERTEX
  8
___
  6
CONTINUOUS
 62
               4
 10
-3.487848242160112
 20
-114.00298283969732
 42
0.1717579160753316
 70
               2
 50
-13.820891411751623
  0
VERTEX
  8
___
  6
CONTINUOUS
 62
               4
 10
-3.8422586222769723
 20
-110.59090156299635
  0
VERTEX
  8
___
  6
CONTINUOUS
 62
               4
 10
-3.8422586222769723
 20
-110.59090156299635
 42
-0.4061688201440469
 70
               2
 50
27.23278515714178
  0
VERTEX
  8
___
  6
CONTINUOUS
 62
               4
 10
-3.2403556132786662
 20
-108.82171872646904
  0
VERTEX
  8
___
  6
CONTINUOUS
 62
               4
 10
-3.2403556132786662
 20
-108.82171872646904
 42
-0.4061688201452581
 70
               2
 50
-112.44929879350995
  0
VERTEX
  8
___
  6
CONTINUOUS
 62
               4
 10
-1.4552669203695814
 20
-109.37466854315062
  0
VERTEX
  8
___
  6
CONTINUOUS
 62
               4
 10
-1.4552669203695814
 20
-109.37466854315062
 42
0.1717579160610788
 70
               2
 50
31.21036821758458
  0
VERTEX
  8
___
  6
CONTINUOUS
 62
               4
 10
1.0968476237266032
 20
-111.66696361760751
  0
VERTEX
  8
___
  6
CONTINUOUS
 62
               4
 10
1.0968476237266032
 20
-111.66696361760751
 42
0.2606584291392478
 70
               2
 50
138.74742921492827
  0
VERTEX
  8
___
  6
CONTINUOUS
 62
               4
 10
1.5815835027786989
 20
-111.60932619356026
  0
VERTEX
  8
___
  6
CONTINUOUS
 62
               4
 10
2.2517064244728999
 20
-111.12245339195852
  0
VERTEX
  8
___
  6
CONTINUOUS
 62
               4
 10
2.2517064244728999
 20
-111.12245339195852
 42
0.260658428749758
 70
               2
 50
-78.86087504111849
  0
VERTEX
  8
___
  6
CONTINUOUS
 62
               4
 10
2.4563144970005624
 20
-110.67925311904128
  0
VERTEX
  8
___
  6
CONTINUOUS
 62
               4
 10
2.4563144970005624
 20
-110.67925311904128
 42
0.1717579160754653
 70
               2
 50
4.4470859459528871
  0
VERTEX
  8
___
  6
CONTINUOUS
 62
               4
 10
1.0648590948575247
 20
-107.54368981714561
  0
VERTEX
  8
___
  6
CONTINUOUS
 62
               4
 10
1.0648590948575247
 20
-107.54368981714561
 42
-0.4061688201435175
 70
               2
 50
54.223279457713886
  0
VERTEX
  8
___
  6
CONTINUOUS
 62
               4
 10
1.090595311100401
 20
-105.67509869320293
  0
VERTEX
  8
___
  6
CONTINUOUS
 62
               4
 10
1.090595311100401
 20
-105.67509869320293
 42
-0.406168820144946
 70
               2
 50
-57.295779513138157
  0
VERTEX
  8
___
  6
CONTINUOUS
 62
               4
 10
2.9591864350467176
 20
-105.64936247696642
  0
VERTEX
  8
___
  6
CONTINUOUS
 62
               4
 10
2.9591864350467176
 20
-105.64936247696642
 42
0.1717579160609492
 70
               2
 50
60.542379265836111
  0
VERTEX
  8
___
  6
CONTINUOUS
 62
               4
 10
6.0947497366704511
 20
-107.04081787908399
  0
VERTEX
  8
___
  6
CONTINUOUS
 62
               4
 10
6.0947497366704511
 20
-107.04081787908399
 42
0.2606584291406157
 70
               2
 50
738.19268190030823
  0
VERTEX
  8
___
  6
CONTINUOUS
 62
               4
 10
6.5379500095831418
 20
-106.83620980695014
  0
VERTEX
  8
___
  6
CONTINUOUS
 62
               4
 10
7.0248228111848903
 20
-106.16608688525594
  0
VERTEX
  8
___
  6
CONTINUOUS
 62
               4
 10
7.0248228111848903
 20
-106.16608688525594
 42
0.2606584287505944
 70
               2
 50
-41.627820491636591
  0
VERTEX
  8
___
  6
CONTINUOUS
 62
               4
 10
7.0824602356059358
 20
-105.68135100607742
  0
VERTEX
  8
___
  6
CONTINUOUS
 62
               4
 10
7.0824602356059358
 20
-105.68135100607742
 42
0.1717579160751162
 70
               2
 50
23.66030389107808
  0
VERTEX
  8
___
  6
CONTINUOUS
 62
               4
 10
4.7901651610399085
 20
-103.12923646173022
  0
VERTEX
  8
___
  6
CONTINUOUS
 62
               4
 10
4.7901651610399085
 20
-103.12923646173022
 42
-0.4061688201435877
 70
               2
 50
105.18319832296841
  0
VERTEX
  8
___
  6
CONTINUOUS
 62
               4
 10
4.2372153443656089
 20
-101.34414776882522
  0
VERTEX
  8
___
  6
CONTINUOUS
 62
               4
 10
4.2372153443656089
 20
-101.34414776882522
 42
-0.4061688201460253
 70
               2
 50
-29.193657810427609
  0
VERTEX
  8
___
  6
CONTINUOUS
 62
               4
 10
6.0063981808988274
 20
-100.74224475983056
  0
VERTEX
  8
___
  6
CONTINUOUS
 62
               4
 10
6.0063981808988274
 20
-100.74224475983056
 42
0.1717579160611298
 70
               2
 50
120.54611127803479
  0
VERTEX
  8
___
  6
CONTINUOUS
 62
               4
 10
9.418479457331955
 20
-101.09665514000744
  0
VERTEX
  8
___
  6
CONTINUOUS
 62
               4
 10
9.418479457331955
 20
-101.09665514000744
 42
0.2606584291391629
 70
               2
 50
-237.52493733869085
  0
VERTEX
  8
___
  6
CONTINUOUS
 62
               4
 10
9.7767605934340054
 20
-100.7651048834764
  0
VERTEX
  8
___
  6
CONTINUOUS
 62
               4
 10
10.032724772880897
 20
-99.977328142286296
  0
VERTEX
  8
___
  6
CONTINUOUS
 62
               4
 10
10.032724772880897
 20
-99.977328142286296
 42
0.2606584287490425
 70
               2
 50
-18.616527274773912
  0
VERTEX
  8
___
  6
CONTINUOUS
 62
               4
 10
9.9377495965098888
 20
-99.498505982054212
  0
VERTEX
  8
___
  6
CONTINUOUS
 62
               4
 10
9.9377495965098888
 20
-99.498505982054212
 42
0.1717579160752103
 70
               2
 50
48.828415852458967
  0
VERTEX
  8
___
  6
CONTINUOUS
 62
               4
 10
6.9690006627769208
 20
-97.779658948483757
  0
VERTEX
  8
___
  6
CONTINUOUS
 62
               4
 10
6.9690006627769208
 20
-97.779658948483757
 42
-0.4061688201433654
 70
               2
 50
306.80354298626514
  0
VERTEX
  8
___
  6
CONTINUOUS
 62
               4
 10
5.8914913938696145
 20
-96.252809605318816
  0
VERTEX
  8
___
  6
CONTINUOUS
 62
               4
 10
5.8914913938696145
 20
-96.252809605318816
 42
-0.4061688201454501
 70
               2
 50
-9.0747599711303835
  0
VERTEX
  8
___
  6
CONTINUOUS
 62
               4
 10
7.3880860003281441
 20
-95.133658263791858
  0
VERTEX
  8
___
  6
CONTINUOUS
 62
               4
 10
7.3880860003281441
 20
-95.133658263791858
 42
0.1717579160608642
 70
               2
 50
439.84131966166171
  0
VERTEX
  8
___
  6
CONTINUOUS
 62
               4
 10
10.74268696286606
 20
-94.416331464695304
  0
VERTEX
  8
___
  6
CONTINUOUS
 62
               4
 10
10.74268696286606
 20
-94.416331464695304
 42
0.2606584291397241
 70
               2
 50
-93.272198540656788
  0
VERTEX
  8
___
  6
CONTINUOUS
 62
               4
 10
10.980977908264208
 20
-93.990293472922986
  0
VERTEX
  8
___
  6
CONTINUOUS
 62
               4
 10
10.980977908264208
 20
-93.161975988428367
  0
VERTEX
  8
___
  6
CONTINUOUS
 62
               4
 10
10.980977908264208
 20
-93.161975988428367
 42
0.260658428749998
 70
               2
  0
VERTEX
  8
___
  6
CONTINUOUS
 62
               4
 10
10.742686963094343
 20
-92.735937996334997
  0
VERTEX
  8
___
  6
CONTINUOUS
 62
               4
 10
10.742686963094343
 20
-92.735937996334997
 42
0.1717579160750236
 70
               2
 50
93.272198300436727
  0
VERTEX
  8
___
  6
CONTINUOUS
 62
               4
 10
7.3880860003199587
 20
-92.01861119709929
  0
VERTEX
  8
___
  6
CONTINUOUS
 62
               4
 10
7.3880860003199587
 20
-92.01861119709929
 42
-0.4061688201433692
 70
               2
 50
-439.84131968415255
  0
VERTEX
  8
___
  6
CONTINUOUS
 62
               4
 10
5.891491393870524
 20
-90.899459855570967
  0
VERTEX
  8
___
  6
CONTINUOUS
 62
               4
 10
5.891491393870524
 20
-90.899459855570967
 42
-0.4061688201450927
 70
               2
 50
9.0747599711111206
  0
VERTEX
  8
___
  6
CONTINUOUS
 62
               4
 10
6.9690006627851062
 20
-89.372610512406482
  0
VERTEX
  8
___
  6
CONTINUOUS
 62
               4
 10
6.9690006627851062
 20
-89.372610512406482
 42
0.1717579160608838
 70
               2
 50
-306.80354299712593
  0
VERTEX
  8
___
  6
CONTINUOUS
 62
               4
 10
9.9377495963352658
 20
-87.653763479041572
  0
VERTEX
  8
___
  6
CONTINUOUS
 62
               4
 10
9.9377495963352658
 20
-87.653763479041572
 42
0.26065842913988
 70
               2
 50
-48.82841596601488
  0
VERTEX
  8
___
  6
CONTINUOUS
 62
               4
 10
10.032724773022778
 20
-87.174941319043228
  0
VERTEX
  8
___
  6
CONTINUOUS
 62
               4
 10
9.7767605935758866
 20
-86.387164577853127
  0
VERTEX
  8
___
  6
CONTINUOUS
 62
               4
 10
9.7767605935758866
 20
-86.387164577853127
 42
0.260658428748041
 70
               2
 50
18.616527274971116
  0
VERTEX
  8
___
  6
CONTINUOUS
 62
               4
 10
9.41847945759298
 20
-86.055614320946916
  0
VERTEX
  8
___
  6
CONTINUOUS
 62
               4
 10
9.41847945759298
 20
-86.055614320946916
 42
0.1717579160751495
 70
               2
 50
237.52493614334708
  0
VERTEX
  8
___
  6
CONTINUOUS
 62
               4
 10
6.0063981808915514
 20
-86.410024701064685
  0
VERTEX
  8
___
  6
CONTINUOUS
 62
               4
 10
6.0063981808915514
 20
-86.410024701064685
 42
-0.4061688201432767
 70
               2
 50
-120.54611128042799
  0
VERTEX
  8
___
  6
CONTINUOUS
 62
               4
 10
4.2372153443656089
 20
-85.80812169206547
  0
VERTEX
  8
___
  6
CONTINUOUS
 62
               4
 10
4.2372153443656089
 20
-85.80812169206547
 42
-0.4061688201457118
 70
               2
 50
29.193657810586043
  0
VERTEX
  8
___
  6
CONTINUOUS
 62
               4
 10
4.7901651610471845
 20
-84.023032999156385
  0
VERTEX
  8
___
  6
CONTINUOUS
 62
               4
 10
4.7901651610471845
 20
-84.023032999156385
 42
0.1717579160608625
 70
               2
 50
-105.1831983244227
  0
VERTEX
  8
___
  6
CONTINUOUS
 62
               4
 10
7.0824602355040724
 20
-81.4709184550602
  0
VERTEX
  8
___
  6
CONTINUOUS
 62
               4
 10
7.0824602355040724
 20
-81.4709184550602
 42
0.2606584291391899
 70
               2
 50
-23.660303968057622
  0
VERTEX
  8
___
  6
CONTINUOUS
 62
               4
 10
7.0248228114568292
 20
-80.98618257600765
  0
VERTEX
  8
___
  6
CONTINUOUS
 62
               4
 10
6.5379500098541712
 20
-80.316059654313449
  0
VERTEX
  8
___
  6
CONTINUOUS
 62
               4
 10
6.5379500098541712
 20
-80.316059654313449
 42
0.2606584287496731
 70
               2
 50
41.627820491488556
  0
VERTEX
  8
___
  6
CONTINUOUS
 62
               4
 10
6.0947497369378425
 20
-80.111451581786241
  0
VERTEX
  8
___
  6
CONTINUOUS
 62
               4
 10
6.0947497369378425
 20
-80.111451581786241
 42
0.1717579160751076
 70
               2
 50
-738.19269289919737
  0
VERTEX
  8
___
  6
CONTINUOUS
 62
               4
 10
2.9591864350412607
 20
-81.502906983928369
  0
VERTEX
  8
___
  6
CONTINUOUS
 62
               4
 10
2.9591864350412607
 20
-81.502906983928369
 42
-0.4061688201437976
 70
               2
 50
-60.542379266556125
  0
VERTEX
  8
___
  6
CONTINUOUS
 62
               4
 10
1.090595311098582
 20
-81.477170767686403
  0
VERTEX
  8
___
  6
CONTINUOUS
 62
               4
 10
1.090595311098582
 20
-81.477170767686403
 42
-0.4061688201456645
 70
               2
 50
57.29577951316729
  0
VERTEX
  8
___
  6
CONTINUOUS
 62
               4
 10
1.0648590948620722
 20
-79.608579643739176
  0
VERTEX
  8
___
  6
CONTINUOUS
 62
               4
 10
1.0648590948620722
 20
-79.608579643739176
 42
0.1717579160608491
 70
               2
 50
-54.223279458422411
  0
VERTEX
  8
___
  6
CONTINUOUS
 62
               4
 10
2.4563144969787345
 20
-76.473016342115898
  0
VERTEX
  8
___
  6
CONTINUOUS
 62
               4
 10
2.4563144969787345
 20
-76.473016342115898
 42
0.260658429141554
 70
               2
 50
-4.4470860123334051
  0
VERTEX
  8
___
  6
CONTINUOUS
 62
               4
 10
2.2517064248448833
 20
-76.029816069203207
  0
VERTEX
  8
___
  6
CONTINUOUS
 62
               4
 10
1.5815835031506822
 20
-75.542943267601459
  0
VERTEX
  8
___
  6
CONTINUOUS
 62
               4
 10
1.5815835031506822
 20
-75.542943267601459
 42
0.2606584287497724
 70
               2
 50
78.860875041018531
  0
VERTEX
  8
___
  6
CONTINUOUS
 62
               4
 10
1.0968476239730762
 20
-75.485305843180413
  0
VERTEX
  8
___
  6
CONTINUOUS
 62
               4
 10
1.0968476239730762
 20
-75.485305843180413
 42
0.1717579160751015
 70
               2
 50
-138.74742966640591
  0
VERTEX
  8
___
  6
CONTINUOUS
 62
               4
 10
-1.4552669203750384
 20
-77.77760091774644
  0
VERTEX
  8
___
  6
CONTINUOUS
 62
               4
 10
-1.4552669203750384
 20
-77.77760091774644
 42
-0.4061688201441416
 70
               2
 50
-31.210368217964337
  0
VERTEX
  8
___
  6
CONTINUOUS
 62
               4
 10
-3.2403556132804852
 20
-78.330550734421195
  0
VERTEX
  8
___
  6
CONTINUOUS
 62
               4
 10
-3.2403556132804852
 20
-78.330550734421195
 42
-0.4061688201452237
 70
               2
 50
112.44929879339247
  0
VERTEX
  8
___
  6
CONTINUOUS
 62
               4
 10
-3.8422586222742439
 20
-76.561367897887976
  0
VERTEX
  8
___
  6
CONTINUOUS
 62
               4
 10
-3.8422586222742439
 20
-76.561367897887976
 42
0.1717579160609096
 70
               2
 50
-27.232785157510065
  0
VERTEX
  8
___
  6
CONTINUOUS
 62
               4
 10
-3.4878482420973569
 20
-73.149286621454394
  0
VERTEX
  8
___
  6
CONTINUOUS
 62
               4
 10
-3.4878482420973569
 20
-73.149286621454394
 42
0.2606584291405983
 70
               2
 50
13.820891342037278
  0
VERTEX
  8
___
  6
CONTINUOUS
 62
               4
 10
-3.8193984986284022
 20
-72.791005485352798
  0
VERTEX
  8
___
  6
CONTINUOUS
 62
               4
 10
-4.6071752398185026
 20
-72.535041305905906
  0
VERTEX
  8
___
  6
CONTINUOUS
 62
               4
 10
-4.6071752398185026
 20
-72.535041305905906
 42
0.2606584287498553
 70
               2
 50
176.3382773565443
  0
VERTEX
  8
___
  6
CONTINUOUS
 62
               4
 10
-5.0859974000505872
 20
-72.630016482276915
  0
VERTEX
  8
___
  6
CONTINUOUS
 62
               4
 10
-5.0859974000505872
 20
-72.630016482276915
 42
0.1717579160751424
 70
               2
 50
-67.231473573321608
  0
VERTEX
  8
___
  6
CONTINUOUS
 62
               4
 10
-6.8048444336210423
 20
-75.598765416008973
  0
VERTEX
  8
___
  6
CONTINUOUS
 62
               4
 10
-6.8048444336210423
 20
-75.598765416008973
 42
-0.4061688201436572
 70
               2
 50
-10.700027509622325
  0
VERTEX
  8
___
  6
CONTINUOUS
 62
               4
 10
-8.3316937767859827
 20
-76.67627468491628
  0
VERTEX
  8
___
  6
CONTINUOUS
 62
               4
 10
-8.3316937767859827
 20
-76.67627468491628
 42
-0.4061688201453023
 70
               2
 50
361.75131468523534
  0
VERTEX
  8
___
  6
CONTINUOUS
 62
               4
 10
-9.4508451183129409
 20
-75.179680078458205
  0
VERTEX
  8
___
  6
CONTINUOUS
 62
               4
 10
-9.4508451183129409
 20
-75.179680078458205
 42
0.1717579160608006
 70
               2
 50
-7.4636151795254042
  0
VERTEX
  8
___
  6
CONTINUOUS
 62
               4
 10
-10.168171917409495
 20
-71.825079115919834
  0
VERTEX
  8
___
  6
CONTINUOUS
 62
               4
 10
-10.168171917409495
 20
-71.825079115919834
 42
0.2606584291389658
 70
               2
 50
35.195979095500633
  0
VERTEX
  8
___
  6
CONTINUOUS
 62
               4
 10
-10.594209909181814
 20
-71.586788170522141
  0
VERTEX
  8
___
  6
CONTINUOUS
 62
               4
 10
-11.422527393676432
 20
-71.586788170522141
  0
VERTEX
  8
___
  6
CONTINUOUS
 62
               4
 10
-11.422527393676432
 20
-71.586788170522141
 42
0.2606584287495591
 70
               2
 50
9.3574199307792870E+17
  0
VERTEX
  8
___
  6
CONTINUOUS
 62
               4
 10
-11.848565385769803
 20
-71.825079115691551
  0
VERTEX
  8
___
  6
CONTINUOUS
 62
               4
 10
-11.848565385769803
 20
-71.825079115691551
 42
0.1717579160750744
 70
               2
 50
-35.195979185976675
  0
VERTEX
  8
___
  6
CONTINUOUS
 62
               4
 10
-12.565892185005509
 20
-75.179680078465935
  0
VERTEX
  8
___
  6
CONTINUOUS
 62
               4
 10
-12.565892185005509
 20
-75.179680078465935
 42
-0.406168820143651
 70
               2
 50
7.4636151792058572
  0
VERTEX
  8
___
  6
CONTINUOUS
 62
               4
 10
-13.685043526533377
 20
-76.67627468491628
  0
VERTEX
  8
___
  6
CONTINUOUS
 62
               4
 10
-13.685043526533377
 20
-76.67627468491628
 42
-0.4061688201454494
 70
               2
 50
-361.75131468450218
  0
VERTEX
  8
___
  6
CONTINUOUS
 62
               4
 10
-15.211892869698318
 20
-75.598765416001697
  0
SEQEND
  8
___
  6
CONTINUOUS
 62
               4
  0
CIRCLE
  8
___
  6
CONTINUOUS
 62
               4
 10
-14.008368651659225
 20
-86.576134730445574
 40
1.5
  0
CIRCLE
  8
___
  6
CONTINUOUS
 62
               4
 10
-8.0083686516592252
 20
-86.576134730445574
 40
1.5
  0
CIRCLE
  8
___
  6
CONTINUOUS
 62
               4
 10
-15.570546478150504
 20
-99.674210941798719
 40
1.4999999999995324
  0
CIRCLE
  8
___
  6
CONTINUOUS
 62
               4
 10
-18.570546478150504
 20
-94.478058519092428
 40
1.50000000000032
  0
CIRCLE
  8
___
  6
CONTINUOUS
 62
               4
 10
-3.4461908251679461
 20
-94.478058519092428
 40
1.4999999999995324
  0
CIRCLE
  8
___
  6
CONTINUOUS
 62
               4
 10
-6.4461908251679461
 20
-99.674210941798719
 40
1.50000000000032
  0
CIRCLE
  8
___
  6
CONTINUOUS
 62
               4
 10
-11.008368651659225
 20
-93.576134730445574
 40
3.5
  0
POLYLINE
  8
__
  6
CONTINUOUS
 62
               4
 66
               1
 70
             129
  0
VERTEX
  8
__
  6
CONTINUOUS
 62
               4
 10
-13.631357573810988
 20
-106.60685069745432
  0
VERTEX
  8
__
  6
CONTINUOUS
 62
               4
 10
-14.094371662123308
 20
-108.03186153453316
  0
VERTEX
  8
__
  6
CONTINUOUS
 62
               4
 10
-14.094371662123308
 20
-108.03186153453316
 42
0.2208027066748492
 70
               2
 50
-18.616527274844962
  0
VERTEX
  8
__
  6
CONTINUOUS
 62
               4
 10
-13.993160760855176
 20
-108.86791024587728
  0
VERTEX
  8
__
  6
CONTINUOUS
 62
               4
 10
-13.993160760855176
 20
-108.86791024587728
 42
0.2208027066742818
 70
               2
 50
35.531974882003894
  0
VERTEX
  8
__
  6
CONTINUOUS
 62
               4
 10
-13.289221422585911
 20
-109.33017694629234
  0
VERTEX
  8
__
  6
CONTINUOUS
 62
               4
 10
-13.289221422585911
 20
-109.33017694629234
 42
0.2344536369337985
 70
               2
 50
388.48653570454638
  0
VERTEX
  8
__
  6
CONTINUOUS
 62
               4
 10
0.2167137925097222
 20
-104.94183257884879
  0
VERTEX
  8
__
  6
CONTINUOUS
 62
               4
 10
0.2167137925097222
 20
-104.94183257884879
 42
0.2208027066922177
 70
               2
 50
-58.529439064600851
  0
VERTEX
  8
__
  6
CONTINUOUS
 62
               4
 10
0.5144991311088916
 20
-104.15408580081794
  0
VERTEX
  8
__
  6
CONTINUOUS
 62
               4
 10
0.5144991311088916
 20
-104.15408580081794
 42
0.2208027066926228
 70
               2
 50
4.2023930583120386
  0
VERTEX
  8
__
  6
CONTINUOUS
 62
               4
 10
0.1049633675764881
 20
-103.41821791011307
  0
VERTEX
  8
__
  6
CONTINUOUS
 62
               4
 10
-1.1072232528059658
 20
-102.53751277852552
  0
VERTEX
  8
__
  6
CONTINUOUS
 62
               4
 10
-1.1072232528059658
 20
-102.53751277852552
 42
0.360653525356121
 70
               2
 50
78.860875041014026
  0
VERTEX
  8
__
  6
CONTINUOUS
 62
               4
 10
-2.3811833306464223
 20
-102.61909310322017
  0
VERTEX
  8
__
  6
CONTINUOUS
 62
               4
 10
-2.3811833306464223
 20
-102.61909310322017
 42
-0.2247002456869539
 70
               2
 50
-60.741154417150227
  0
VERTEX
  8
__
  6
CONTINUOUS
 62
               4
 10
-12.552750508988652
 20
-105.92403562104073
  0
VERTEX
  8
__
  6
CONTINUOUS
 62
               4
 10
-12.552750508988652
 20
-105.92403562104073
 42
0.3606535254463987
 70
               2
 50
445.5315327693317
  0
VERTEX
  8
__
  6
CONTINUOUS
 62
               4
 10
-13.631357573810988
 20
-106.60685069745432
  0
SEQEND
  8
__
  6
CONTINUOUS
 62
               4
  0
POLYLINE
  8
__
  6
CONTINUOUS
 62
               4
 66
               1
 70
             129
  0
VERTEX
  8
__
  6
CONTINUOUS
 62
               4
 10
-24.22486781305463
 20
-92.026134730445392
  0
VERTEX
  8
__
  6
CONTINUOUS
 62
               4
 10
-25.723212877003903
 20
-92.026134730445392
  0
VERTEX
  8
__
  6
CONTINUOUS
 62
               4
 10
-25.723212877003903
 20
-92.026134730445392
 42
-0.2208027066832123
 70
               2
 50
-49783648883007.687
  0
VERTEX
  8
__
  6
CONTINUOUS
 62
               4
 10
-26.487066563331723
 20
-91.671524183342626
  0
VERTEX
  8
__
  6
CONTINUOUS
 62
               4
 10
-26.487066563331723
 20
-91.671524183342626
 42
-0.2208027066829624
 70
               2
 50
48.409914696064
  0
VERTEX
  8
__
  6
CONTINUOUS
 62
               4
 10
-26.709179102448729
 20
-90.859189822257122
  0
VERTEX
  8
__
  6
CONTINUOUS
 62
               4
 10
-26.709179102448729
 20
-90.859189822257122
 42
-0.2344536369342841
 70
               2
 50
-9.7013857103102534
  0
VERTEX
  8
__
  6
CONTINUOUS
 62
               4
 10
-18.362052089636677
 20
-79.370355113969708
  0
VERTEX
  8
__
  6
CONTINUOUS
 62
               4
 10
-18.362052089636677
 20
-79.370355113969708
 42
-0.220802706701652
 70
               2
 50
-109.54904194955893
  0
VERTEX
  8
__
  6
CONTINUOUS
 62
               4
 10
-17.520839652927975
 20
-79.33057156887071
  0
VERTEX
  8
__
  6
CONTINUOUS
 62
               4
 10
-17.520839652927975
 20
-79.33057156887071
 42
-0.2208027067012673
 70
               2
 50
140.43488204300982
  0
VERTEX
  8
__
  6
CONTINUOUS
 62
               4
 10
-16.947541211085195
 20
-79.947458909246052
  0
VERTEX
  8
__
  6
CONTINUOUS
 62
               4
 10
-16.484527122696932
 20
-81.372469746559091
  0
VERTEX
  8
__
  6
CONTINUOUS
 62
               4
 10
-16.484527122696932
 20
-81.372469746559091
 42
-0.3606535254451354
 70
               2
 50
18.616527274816018
  0
VERTEX
  8
__
  6
CONTINUOUS
 62
               4
 10
-16.955789936430961
 20
-82.558868073116628
  0
VERTEX
  8
__
  6
CONTINUOUS
 62
               4
 10
-16.955789936430961
 20
-82.558868073116628
 42
0.2247002456875763
 70
               2
 50
-104.77471273445927
  0
VERTEX
  8
__
  6
CONTINUOUS
 62
               4
 10
-23.242164171492846
 20
-91.211319915626063
  0
VERTEX
  8
__
  6
CONTINUOUS
 62
               4
 10
-23.242164171492846
 20
-91.211319915626063
 42
-0.3606535252988274
 70
               2
 50
-10.797079697956507
  0
VERTEX
  8
__
  6
CONTINUOUS
 62
               4
 10
-24.22486781305463
 20
-92.026134730445392
  0
SEQEND
  8
__
  6
CONTINUOUS
 62
               4
  0
POLYLINE
  8
__
  6
CONTINUOUS
 62
               4
 66
               1
 70
             129
  0
VERTEX
  8
__
  6
CONTINUOUS
 62
               4
 10
0.6561325042001727
 20
-100.11046179549476
  0
VERTEX
  8
__
  6
CONTINUOUS
 62
               4
 10
1.8683191244134605
 20
-100.99116692695907
  0
VERTEX
  8
__
  6
CONTINUOUS
 62
               4
 10
1.8683191244134605
 20
-100.99116692695907
 42
0.2208027066867621
 70
               2
 50
78.860875041193978
  0
VERTEX
  8
__
  6
CONTINUOUS
 62
               4
 10
2.6947245877512387
 20
-101.15326289969153
  0
VERTEX
  8
__
  6
CONTINUOUS
 62
               4
 10
2.6947245877512387
 20
-101.15326289969153
 42
0.2208027066868687
 70
               2
 50
-233.17670453344994
  0
VERTEX
  8
__
  6
CONTINUOUS
 62
               4
 10
3.3518955639145815
 20
-100.62662507129426
  0
VERTEX
  8
__
  6
CONTINUOUS
 62
               4
 10
3.3518955639145815
 20
-100.62662507129426
 42
0.2344536369336116
 70
               2
 50
-28.429113737907851
  0
VERTEX
  8
__
  6
CONTINUOUS
 62
               4
 10
3.3518955639254955
 20
-86.425644389618355
  0
VERTEX
  8
__
  6
CONTINUOUS
 62
               4
 10
3.3518955639254955
 20
-86.425644389618355
 42
0.2208027066726404
 70
               2
 50
28.429113746098338
  0
VERTEX
  8
__
  6
CONTINUOUS
 62
               4
 10
2.6947245876834813
 20
-85.899006561246551
  0
VERTEX
  8
__
  6
CONTINUOUS
 62
               4
 10
2.6947245876834813
 20
-85.899006561246551
 42
0.2208027066728092
 70
               2
 50
233.17670458803275
  0
VERTEX
  8
__
  6
CONTINUOUS
 62
               4
 10
1.8683191243052306
 20
-86.061102534010388
  0
VERTEX
  8
__
  6
CONTINUOUS
 62
               4
 10
0.6561325041874397
 20
-86.941807665404667
  0
VERTEX
  8
__
  6
CONTINUOUS
 62
               4
 10
0.6561325041874397
 20
-86.941807665404667
 42
0.3606535253076773
 70
               2
 50
-78.860875041014694
  0
VERTEX
  8
__
  6
CONTINUOUS
 62
               4
 10
0.3400446892545688
 20
-88.178625405733783
  0
VERTEX
  8
__
  6
CONTINUOUS
 62
               4
 10
0.3400446892545688
 20
-88.178625405733783
 42
-0.2247002456890465
 70
               2
 50
27.117941782445111
  0
VERTEX
  8
__
  6
CONTINUOUS
 62
               4
 10
0.3400446892536593
 20
-98.87364405515882
  0
VERTEX
  8
__
  6
CONTINUOUS
 62
               4
 10
0.3400446892536593
 20
-98.87364405515882
 42
0.3606535253027255
 70
               2
 50
-27.117941785611418
  0
VERTEX
  8
__
  6
CONTINUOUS
 62
               4
 10
0.6561325042001727
 20
-100.11046179549476
  0
SEQEND
  8
__
  6
CONTINUOUS
 62
               4
  0
POLYLINE
  8
__
  6
CONTINUOUS
 62
               4
 66
               1
 70
             129
  0
VERTEX
  8
__
  6
CONTINUOUS
 62
               4
 10
-13.631357573897844
 20
-80.445418763169528
  0
VERTEX
  8
__
  6
CONTINUOUS
 62
               4
 10
-14.094371662099661
 20
-79.02040792643038
  0
VERTEX
  8
__
  6
CONTINUOUS
 62
               4
 10
-14.094371662099661
 20
-79.02040792643038
 42
-0.2208027066663828
 70
               2
 50
18.616527274782381
  0
VERTEX
  8
__
  6
CONTINUOUS
 62
               4
 10
-13.993160760841079
 20
-78.184359215058976
  0
VERTEX
  8
__
  6
CONTINUOUS
 62
               4
 10
-13.993160760841079
 20
-78.184359215058976
 42
-0.2208027066661149
 70
               2
 50
-35.531974879455937
  0
VERTEX
  8
__
  6
CONTINUOUS
 62
               4
 10
-13.289221422572268
 20
-77.72209251459617
  0
VERTEX
  8
__
  6
CONTINUOUS
 62
               4
 10
-13.289221422572268
 20
-77.72209251459617
 42
-0.2344536369337528
 70
               2
 50
-388.48653570684837
  0
VERTEX
  8
__
  6
CONTINUOUS
 62
               4
 10
0.2167137925174529
 20
-82.110436882049271
  0
VERTEX
  8
__
  6
CONTINUOUS
 62
               4
 10
0.2167137925174529
 20
-82.110436882049271
 42
-0.2208027066982219
 70
               2
 50
58.529439070010703
  0
VERTEX
  8
__
  6
CONTINUOUS
 62
               4
 10
0.5144991311370859
 20
-82.898183660051473
  0
VERTEX
  8
__
  6
CONTINUOUS
 62
               4
 10
0.5144991311370859
 20
-82.898183660051473
 42
-0.2208027066985904
 70
               2
 50
-4.2023930569932402
  0
VERTEX
  8
__
  6
CONTINUOUS
 62
               4
 10
0.1049633676228723
 20
-83.634051550743607
  0
VERTEX
  8
__
  6
CONTINUOUS
 62
               4
 10
-1.1072232526031485
 20
-84.514756682217012
  0
VERTEX
  8
__
  6
CONTINUOUS
 62
               4
 10
-1.1072232526031485
 20
-84.514756682217012
 42
-0.3606535252722406
 70
               2
 50
-78.860875041095355
  0
VERTEX
  8
__
  6
CONTINUOUS
 62
               4
 10
-2.3811833306154995
 20
-84.433176357700631
  0
VERTEX
  8
__
  6
CONTINUOUS
 62
               4
 10
-2.3811833306154995
 20
-84.433176357700631
 42
0.2247002456888842
 70
               2
 50
60.741154416722033
  0
VERTEX
  8
__
  6
CONTINUOUS
 62
               4
 10
-12.552750509035945
 20
-81.128233839856421
  0
VERTEX
  8
__
  6
CONTINUOUS
 62
               4
 10
-12.552750509035945
 20
-81.128233839856421
 42
-0.3606535253532511
 70
               2
 50
-445.53153392857155
  0
VERTEX
  8
__
  6
CONTINUOUS
 62
               4
 10
-13.631357573897844
 20
-80.445418763169528
  0
SEQEND
  8
__
  6
CONTINUOUS
 62
               4
  0
POLYLINE
  8
__
  6
CONTINUOUS
 62
               4
 66
               1
 70
             129
  0
VERTEX
  8
__
  6
CONTINUOUS
 62
               4
 10
-18.36205208962258
 20
-107.68191434692835
  0
VERTEX
  8
__
  6
CONTINUOUS
 62
               4
 10
-18.36205208962258
 20
-107.68191434692835
 42
0.22080270671123
 70
               2
 50
109.5490419298019
  0
VERTEX
  8
__
  6
CONTINUOUS
 62
               4
 10
-17.520839652947075
 20
-107.72169789207283
  0
VERTEX
  8
__
  6
CONTINUOUS
 62
               4
 10
-17.520839652947075
 20
-107.72169789207283
 42
0.2208027067114528
 70
               2
 50
-140.43488205839236
  0
VERTEX
  8
__
  6
CONTINUOUS
 62
               4
 10
-16.947541211113844
 20
-107.10481055173113
  0
VERTEX
  8
__
  6
CONTINUOUS
 62
               4
 10
-16.484527122642362
 20
-105.67979971416207
  0
VERTEX
  8
__
  6
CONTINUOUS
 62
               4
 10
-16.484527122642362
 20
-105.67979971416207
 42
0.3606535255043852
 70
               2
 50
-18.616527274801257
  0
VERTEX
  8
__
  6
CONTINUOUS
 62
               4
 10
-16.955789936459155
 20
-104.4934013877596
  0
VERTEX
  8
__
  6
CONTINUOUS
 62
               4
 10
-16.955789936459155
 20
-104.4934013877596
 42
-0.2247002456868927
 70
               2
 50
104.77471273381227
  0
VERTEX
  8
__
  6
CONTINUOUS
 62
               4
 10
-23.2421641714933
 20
-95.840949545264721
  0
VERTEX
  8
__
  6
CONTINUOUS
 62
               4
 10
-23.2421641714933
 20
-95.840949545264721
 42
0.3606535252994298
 70
               2
 50
10.797079697879536
  0
VERTEX
  8
__
  6
CONTINUOUS
 62
               4
 10
-24.22486781305463
 20
-95.026134730445392
  0
VERTEX
  8
__
  6
CONTINUOUS
 62
               4
 10
-25.723212877003903
 20
-95.026134730445392
  0
VERTEX
  8
__
  6
CONTINUOUS
 62
               4
 10
-25.723212877003903
 20
-95.026134730445392
 42
0.220802706682869
 70
               2
 50
9.3574199307792870E+17
  0
VERTEX
  8
__
  6
CONTINUOUS
 62
               4
 10
-26.487066563331723
 20
-95.380745277548613
  0
VERTEX
  8
__
  6
CONTINUOUS
 62
               4
 10
-26.487066563331723
 20
-95.380745277548613
 42
0.2208027066829944
 70
               2
 50
-48.409914696084911
  0
VERTEX
  8
__
  6
CONTINUOUS
 62
               4
 10
-26.709179102448729
 20
-96.193079638633662
  0
VERTEX
  8
__
  6
CONTINUOUS
 62
               4
 10
-26.709179102448729
 20
-96.193079638633662
 42
0.2344536369345596
 70
               2
 50
9.7013857103090348
  0
VERTEX
  8
__
  6
CONTINUOUS
 62
               4
 10
-18.36205208962258
 20
-107.68191434692835
  0
SEQEND
  8
__
  6
CONTINUOUS
 62
               4
  0
CIRCLE
  8
__
  6
CONTINUOUS
 62
               4
 10
-11.008368651659225
 20
-93.576134730445574
 40
23.989346559923433
  0
CIRCLE
  8
__
  6
CONTINUOUS
 62
               4
 10
-11.008368651659225
 20
-93.576134730445574
 40
22.725000000000364
  0
POLYLINE
  8
__-1
  6
CONTINUOUS
 62
               4
 66
               1
 70
             129
  0
VERTEX
  8
__-1
  6
CONTINUOUS
 62
               4
 10
-21.893389495722772
 20
-93.913061277541146
  0
VERTEX
  8
__-1
  6
CONTINUOUS
 62
               4
 10
-21.893389495722772
 20
-93.913061277541146
 42
0.267949192426803
 70
               2
 50
-33.079733724662077
  0
VERTEX
  8
__-1
  6
CONTINUOUS
 62
               4
 10
-21.893389495719589
 20
-95.963061277515408
  0
VERTEX
  8
__-1
  6
CONTINUOUS
 62
               4
 10
-18.518018100482664
 20
-101.80937602856284
  0
VERTEX
  8
__-1
  6
CONTINUOUS
 62
               4
 10
-18.518018100482664
 20
-101.80937602856284
 42
0.2679491924327853
 70
               2
 50
33.079733724828742
  0
VERTEX
  8
__-1
  6
CONTINUOUS
 62
               4
 10
-16.742666022718481
 20
-102.83437602857384
  0
VERTEX
  8
__-1
  6
CONTINUOUS
 62
               4
 10
-5.2740712806445345
 20
-102.83437602857384
  0
VERTEX
  8
__-1
  6
CONTINUOUS
 62
               4
 10
-5.2740712806445345
 20
-102.83437602857384
 42
0.2679491924320998
 70
               2
 50
3.1191399769264294E+17
  0
VERTEX
  8
__-1
  6
CONTINUOUS
 62
               4
 10
-3.4987192028921754
 20
-101.80937602857284
  0
VERTEX
  8
__-1
  6
CONTINUOUS
 62
               4
 10
-0.1233478076143229
 20
-95.963061277530869
  0
VERTEX
  8
__-1
  6
CONTINUOUS
 62
               4
 10
-0.1233478076143229
 20
-95.963061277530869
 42
0.2679491924311444
 70
               2
 50
-33.079733725285237
  0
VERTEX
  8
__-1
  6
CONTINUOUS
 62
               4
 10
-0.1233478076170513
 20
-93.913061277527504
  0
VERTEX
  8
__-1
  6
CONTINUOUS
 62
               4
 10
-5.857645178734515
 20
-83.980966885098951
  0
VERTEX
  8
__-1
  6
CONTINUOUS
 62
               4
 10
-5.857645178734515
 20
-83.980966885098951
 42
0.2679491924304094
 70
               2
 50
33.079733725490591
  0
VERTEX
  8
__-1
  6
CONTINUOUS
 62
               4
 10
-7.6329972564900572
 20
-82.955966885102953
  0
VERTEX
  8
__-1
  6
CONTINUOUS
 62
               4
 10
-14.383740046948446
 20
-82.955966885102953
  0
VERTEX
  8
__-1
  6
CONTINUOUS
 62
               4
 10
-14.383740046948446
 20
-82.955966885102953
 42
0.2679491924283969
 70
               2
 50
9.3574199307792870E+17
  0
VERTEX
  8
__-1
  6
CONTINUOUS
 62
               4
 10
-16.159092124753556
 20
-83.98096688511805
  0
SEQEND
  8
__-1
  6
CONTINUOUS
 62
               4
  0
CIRCLE
  8
___
  6
CONTINUOUS
 62
               4
 10
116.55380917476907
 20
-36.63240472727739
 40
1.2499999999994156
  0
CIRCLE
  8
___
  6
CONTINUOUS
 62
               4
 10
113.55380917473997
 20
-31.43625230458747
 40
1.2500000000002032
  0
CIRCLE
  8
___
  6
CONTINUOUS
 62
               4
 10
104.42945352175741
 20
-31.436252304637947
 40
1.250000000000199
  0
CIRCLE
  8
___
  6
CONTINUOUS
 62
               4
 10
101.42945352178697
 20
-36.632404727361518
 40
1.2499999999999716
  0
CIRCLE
  8
___
  6
CONTINUOUS
 62
               4
 10
105.99163134832236
 20
-44.534328515982907
 40
1.25
  0
CIRCLE
  8
___
  6
CONTINUOUS
 62
               4
 10
111.9916313483219
 20
-44.534328515949255
 40
1.2499999999995453
  0
CIRCLE
  8
__-1
  6
CONTINUOUS
 62
               4
 10
108.99163134828325
 20
-37.534328515965626
 40
4.0250000000003574
  0
POLYLINE
  8
__-1
  6
CONTINUOUS
 62
               4
 66
               1
 70
             129
  0
VERTEX
  8
__-1
  6
CONTINUOUS
 62
               4
 10
98.149911774389807
 20
-35.172401968888607
  0
VERTEX
  8
__-1
  6
CONTINUOUS
 62
               4
 10
98.149911774389807
 20
-35.172401968888607
 42
0.2679491924327169
 70
               2
 50
-33.079733725326385
  0
VERTEX
  8
__-1
  6
CONTINUOUS
 62
               4
 10
98.149911774395264
 20
-37.172401968898612
  0
VERTEX
  8
__-1
  6
CONTINUOUS
 62
               4
 10
103.88420914548817
 20
-47.104496361211659
  0
VERTEX
  8
__-1
  6
CONTINUOUS
 62
               4
 10
103.88420914548817
 20
-47.104496361211659
 42
0.2679491924322018
 70
               2
 50
33.079733725729376
  0
VERTEX
  8
__-1
  6
CONTINUOUS
 62
               4
 10
105.61625995306042
 20
-48.104496361196198
  0
VERTEX
  8
__-1
  6
CONTINUOUS
 62
               4
 10
112.36700274362113
 20
-48.10449636115527
  0
VERTEX
  8
__-1
  6
CONTINUOUS
 62
               4
 10
112.36700274362113
 20
-48.10449636115527
 42
0.2679491924347682
 70
               2
 50
3.1191399769264294E+17
  0
VERTEX
  8
__-1
  6
CONTINUOUS
 62
               4
 10
114.09905355118565
 20
-47.104496361142083
  0
VERTEX
  8
__-1
  6
CONTINUOUS
 62
               4
 10
119.83335092219943
 20
-37.172401968653503
  0
VERTEX
  8
__-1
  6
CONTINUOUS
 62
               4
 10
119.83335092219943
 20
-37.172401968653503
 42
0.2679491924302512
 70
               2
 50
-33.079733724679663
  0
VERTEX
  8
__-1
  6
CONTINUOUS
 62
               4
 10
119.83335092218624
 20
-35.172401968657596
  0
VERTEX
  8
__-1
  6
CONTINUOUS
 62
               4
 10
116.4579795269243
 20
-29.326087217725672
  0
VERTEX
  8
__-1
  6
CONTINUOUS
 62
               4
 10
116.4579795269243
 20
-29.326087217725672
 42
0.2679491924282842
 70
               2
 50
33.079733725724324
  0
VERTEX
  8
__-1
  6
CONTINUOUS
 62
               4
 10
114.72592871931386
 20
-28.326087217702025
  0
VERTEX
  8
__-1
  6
CONTINUOUS
 62
               4
 10
103.2573339772058
 20
-28.326087217863915
  0
VERTEX
  8
__-1
  6
CONTINUOUS
 62
               4
 10
103.2573339772058
 20
-28.326087217863915
 42
0.2679491924271835
 70
               2
 50
-4039929316494.6357
  0
VERTEX
  8
__-1
  6
CONTINUOUS
 62
               4
 10
101.52528316966584
 20
-29.326087217863005
  0
SEQEND
  8
__-1
  6
CONTINUOUS
 62
               4
  0
CIRCLE
  8
__-1
  6
CONTINUOUS
 62
               4
 10
-22.808368651659407
 20
-199.49354710474563
 40
5.0
  0
CIRCLE
  8
__-1
  6
CONTINUOUS
 62
               4
 10
-22.808368651659407
 20
-202.49354710474563
 40
1.5
  0
CIRCLE
  8
__-1
  6
CONTINUOUS
 62
               4
 10
-22.808368651659407
 20
-196.49354710474563
 40
1.5
  0
LINE
  8
__-1
  6
STYLE_06
 62
               4
 10
-29.808368651659407
 20
-199.49354710474563
 11
1.2916313483409567
 21
-199.49354710474563
  0
POLYLINE
  8
__-1
  6
CONTINUOUS
 62
               4
 66
               1
 70
               1
  0
VERTEX
  8
__-1
  6
CONTINUOUS
 62
               4
 10
-14.258368651659225
 20
-194.49354710474563
  0
VERTEX
  8
__-1
  6
CONTINUOUS
 62
               4
 10
-6.7583686516592252
 20
-194.49354710474563
  0
VERTEX
  8
__-1
  6
CONTINUOUS
 62
               4
 10
-6.7583686516592252
 20
-204.49354710474563
  0
VERTEX
  8
__-1
  6
CONTINUOUS
 62
               4
 10
-14.258368651659225
 20
-204.49354710474563
  0
SEQEND
  8
__-1
  6
CONTINUOUS
 62
               4
  0
POLYLINE
  8
__-1
  6
STYLE_13
 62
               4
 66
               1
 70
               1
  0
VERTEX
  8
__-1
  6
STYLE_13
 62
               4
 10
-14.258368651659225
 20
-194.99354710474563
  0
VERTEX
  8
__-1
  6
STYLE_13
 62
               4
 10
-6.7583686516592252
 20
-194.99354710474563
  0
VERTEX
  8
__-1
  6
STYLE_13
 62
               4
 10
-6.7583686516592252
 20
-197.99354710474563
  0
VERTEX
  8
__-1
  6
STYLE_13
 62
               4
 10
-14.258368651659225
 20
-197.99354710474563
  0
SEQEND
  8
__-1
  6
STYLE_13
 62
               4
  0
POLYLINE
  8
__-1
  6
STYLE_13
 62
               4
 66
               1
 70
               1
  0
VERTEX
  8
__-1
  6
STYLE_13
 62
               4
 10
-14.258368651659225
 20
-200.99354710474563
  0
VERTEX
  8
__-1
  6
STYLE_13
 62
               4
 10
-6.7583686516592252
 20
-200.99354710474563
  0
VERTEX
  8
__-1
  6
STYLE_13
 62
               4
 10
-6.7583686516592252
 20
-203.99354710474563
  0
VERTEX
  8
__-1
  6
STYLE_13
 62
               4
 10
-14.258368651659225
 20
-203.99354710474563
  0
SEQEND
  8
__-1
  6
STYLE_13
 62
               4
  0
POLYLINE
  8
___
  6
CONTINUOUS
 62
               4
 66
               1
 70
               1
  0
VERTEX
  8
___
  6
CONTINUOUS
 62
               4
 10
-229.98454247548409
 20
-110.79354710474581
  0
VERTEX
  8
___
  6
CONTINUOUS
 62
               4
 10
-219.98454247548409
 20
-110.79354710474581
  0
VERTEX
  8
___
  6
CONTINUOUS
 62
               4
 10
-219.98454247548409
 20
-118.29354710474581
  0
VERTEX
  8
___
  6
CONTINUOUS
 62
               4
 10
-229.98454247548409
 20
-118.29354710474581
  0
SEQEND
  8
___
  6
CONTINUOUS
 62
               4
  0
POLYLINE
  8
___
  6
CONTINUOUS
 62
               4
 66
               1
 70
               1
  0
VERTEX
  8
___
  6
CONTINUOUS
 62
               4
 10
-215.98454247548409
 20
-91.793547104745812
  0
VERTEX
  8
___
  6
CONTINUOUS
 62
               4
 10
-205.98454247548409
 20
-91.793547104745812
  0
VERTEX
  8
___
  6
CONTINUOUS
 62
               4
 10
-205.98454247548409
 20
-99.293547104745812
  0
VERTEX
  8
___
  6
CONTINUOUS
 62
               4
 10
-215.98454247548409
 20
-99.293547104745812
  0
SEQEND
  8
___
  6
CONTINUOUS
 62
               4
  0
POLYLINE
  8
___
  6
CONTINUOUS
 62
               4
 66
               1
 70
               1
  0
VERTEX
  8
___
  6
CONTINUOUS
 62
               4
 10
-231.98454247548409
 20
-99.293547104745812
  0
VERTEX
  8
___
  6
CONTINUOUS
 62
               4
 10
-203.98454247548409
 20
-99.293547104745812
  0
VERTEX
  8
___
  6
CONTINUOUS
 62
               4
 10
-203.98454247548409
 20
-101.29354710474581
  0
VERTEX
  8
___
  6
CONTINUOUS
 62
               4
 10
-231.98454247548409
 20
-101.29354710474581
  0
SEQEND
  8
___
  6
CONTINUOUS
 62
               4
  0
POLYLINE
  8
___
  6
CONTINUOUS
 62
               4
 66
               1
 70
               1
  0
VERTEX
  8
___
  6
CONTINUOUS
 62
               4
 10
-222.98454247548409
 20
-101.29354710474581
  0
VERTEX
  8
___
  6
CONTINUOUS
 62
               4
 10
-212.98454247548409
 20
-101.29354710474581
  0
VERTEX
  8
___
  6
CONTINUOUS
 62
               4
 10
-212.98454247548409
 20
-108.79354710474581
  0
VERTEX
  8
___
  6
CONTINUOUS
 62
               4
 10
-222.98454247548409
 20
-108.79354710474581
  0
SEQEND
  8
___
  6
CONTINUOUS
 62
               4
  0
POLYLINE
  8
___
  6
CONTINUOUS
 62
               4
 66
               1
 70
               1
  0
VERTEX
  8
___
  6
CONTINUOUS
 62
               4
 10
-231.98454247548409
 20
-108.79354710474581
  0
VERTEX
  8
___
  6
CONTINUOUS
 62
               4
 10
-203.98454247548409
 20
-108.79354710474581
  0
VERTEX
  8
___
  6
CONTINUOUS
 62
               4
 10
-203.98454247548409
 20
-110.79354710474581
  0
VERTEX
  8
___
  6
CONTINUOUS
 62
               4
 10
-231.98454247548409
 20
-110.79354710474581
  0
SEQEND
  8
___
  6
CONTINUOUS
 62
               4
  0
POLYLINE
  8
___
  6
CONTINUOUS
 62
               4
 66
               1
 70
               1
  0
VERTEX
  8
___
  6
CONTINUOUS
 62
               4
 10
-231.98454247548409
 20
-118.29354710474581
  0
VERTEX
  8
___
  6
CONTINUOUS
 62
               4
 10
-203.98454247548409
 20
-118.29354710474581
  0
VERTEX
  8
___
  6
CONTINUOUS
 62
               4
 10
-203.98454247548409
 20
-120.29354710474581
  0
VERTEX
  8
___
  6
CONTINUOUS
 62
               4
 10
-231.98454247548409
 20
-120.29354710474581
  0
SEQEND
  8
___
  6
CONTINUOUS
 62
               4
  0
POLYLINE
  8
__
  6
CONTINUOUS
 62
               4
 66
               1
 70
               1
  0
VERTEX
  8
__
  6
CONTINUOUS
 62
               4
 10
-222.05152977359205
 20
-99.293547104745812
  0
VERTEX
  8
__
  6
CONTINUOUS
 62
               4
 10
-219.91755517737704
 20
-99.293547104745812
  0
VERTEX
  8
__
  6
CONTINUOUS
 62
               4
 10
-219.91755517737704
 20
-108.64354710474572
  0
VERTEX
  8
__
  6
CONTINUOUS
 62
               4
 10
-222.05152977359205
 20
-108.64354710474572
  0
SEQEND
  8
__
  6
CONTINUOUS
 62
               4
  0
POLYLINE
  8
__
  6
CONTINUOUS
 62
               4
 66
               1
 70
               1
  0
VERTEX
  8
__
  6
CONTINUOUS
 62
               4
 10
-222.484542475485
 20
-99.293547104745812
  0
VERTEX
  8
__
  6
CONTINUOUS
 62
               4
 10
-219.484542475485
 20
-99.293547104745812
  0
VERTEX
  8
__
  6
CONTINUOUS
 62
               4
 10
-219.484542475485
 20
-108.64354710474572
  0
VERTEX
  8
__
  6
CONTINUOUS
 62
               4
 10
-222.484542475485
 20
-108.64354710474572
  0
SEQEND
  8
__
  6
CONTINUOUS
 62
               4
  0
POLYLINE
  8
__
  6
CONTINUOUS
 62
               4
 66
               1
 70
               1
  0
VERTEX
  8
__
  6
CONTINUOUS
 62
               4
 10
-219.484542475485
 20
-109.14354710474572
  0
VERTEX
  8
__
  6
CONTINUOUS
 62
               4
 10
-217.83454247548445
 20
-110.79354710474581
  0
VERTEX
  8
__
  6
CONTINUOUS
 62
               4
 10
-224.13454247548464
 20
-110.79354710474581
  0
VERTEX
  8
__
  6
CONTINUOUS
 62
               4
 10
-222.484542475485
 20
-109.14354710474572
  0
SEQEND
  8
__
  6
CONTINUOUS
 62
               4
  0
POLYLINE
  8
__
  6
CONTINUOUS
 62
               4
 66
               1
 70
               1
  0
VERTEX
  8
__
  6
CONTINUOUS
 62
               4
 10
-222.26803612453853
 20
-108.64354710474572
  0
VERTEX
  8
__
  6
CONTINUOUS
 62
               4
 10
-219.70104882643056
 20
-108.64354710474572
  0
VERTEX
  8
__
  6
CONTINUOUS
 62
               4
 10
-219.70104882643056
 20
-109.14354710474572
  0
VERTEX
  8
__
  6
CONTINUOUS
 62
               4
 10
-222.26803612453853
 20
-109.14354710474572
  0
SEQEND
  8
__
  6
CONTINUOUS
 62
               4
  0
TEXT
  8
__
 62
               4
 10
-222.3100980310403
 20
-110.71465821585714
 40
1.0858940972222222
  1
11.5
  7
_______
 11
-222.3100980310403
 21
-109.43120856307937
  0
POLYLINE
  8
__
  6
CONTINUOUS
 62
               4
 66
               1
 70
               1
  0
VERTEX
  8
__
  6
CONTINUOUS
 62
               4
 10
-216.13708532914745
 20
-99.372435993634554
  0
VERTEX
  8
__
  6
CONTINUOUS
 62
               4
 10
-214.00311073293199
 20
-99.372435993634554
  0
VERTEX
  8
__
  6
CONTINUOUS
 62
               4
 10
-214.00311073293199
 20
-108.72243599363446
  0
VERTEX
  8
__
  6
CONTINUOUS
 62
               4
 10
-216.13708532914745
 20
-108.72243599363446
  0
SEQEND
  8
__
  6
CONTINUOUS
 62
               4
  0
POLYLINE
  8
__
  6
CONTINUOUS
 62
               4
 66
               1
 70
               1
  0
VERTEX
  8
__
  6
CONTINUOUS
 62
               4
 10
-216.57009803103995
 20
-99.372435993634554
  0
VERTEX
  8
__
  6
CONTINUOUS
 62
               4
 10
-213.57009803103995
 20
-99.372435993634554
  0
VERTEX
  8
__
  6
CONTINUOUS
 62
               4
 10
-213.57009803103995
 20
-108.72243599363446
  0
VERTEX
  8
__
  6
CONTINUOUS
 62
               4
 10
-216.57009803103995
 20
-108.72243599363446
  0
SEQEND
  8
__
  6
CONTINUOUS
 62
               4
  0
POLYLINE
  8
__
  6
CONTINUOUS
 62
               4
 66
               1
 70
               1
  0
VERTEX
  8
__
  6
CONTINUOUS
 62
               4
 10
-213.57009803103995
 20
-109.22243599363446
  0
VERTEX
  8
__
  6
CONTINUOUS
 62
               4
 10
-211.9200980310394
 20
-110.87243599363455
  0
VERTEX
  8
__
  6
CONTINUOUS
 62
               4
 10
-218.22009803103958
 20
-110.87243599363455
  0
VERTEX
  8
__
  6
CONTINUOUS
 62
               4
 10
-216.57009803103995
 20
-109.22243599363446
  0
SEQEND
  8
__
  6
CONTINUOUS
 62
               4
  0
POLYLINE
  8
__
  6
CONTINUOUS
 62
               4
 66
               1
 70
               1
  0
VERTEX
  8
__
  6
CONTINUOUS
 62
               4
 10
-216.35359168009347
 20
-108.72243599363446
  0
VERTEX
  8
__
  6
CONTINUOUS
 62
               4
 10
-213.78660438198551
 20
-108.72243599363446
  0
VERTEX
  8
__
  6
CONTINUOUS
 62
               4
 10
-213.78660438198551
 20
-109.22243599363446
  0
VERTEX
  8
__
  6
CONTINUOUS
 62
               4
 10
-216.35359168009347
 20
-109.22243599363446
  0
SEQEND
  8
__
  6
CONTINUOUS
 62
               4
  0
TEXT
  8
__
 62
               4
 10
-216.39565358659524
 20
-110.79354710474588
 40
1.0858940972222222
  1
11.5
  7
_______
 11
-216.39565358659524
 21
-109.51009745196811
  0
POLYLINE
  8
___
  6
CONTINUOUS
 62
               4
 66
               1
 70
               1
  0
VERTEX
  8
___
  6
CONTINUOUS
 62
               4
 10
-227.98454247548409
 20
-110.79354710474581
  0
VERTEX
  8
___
  6
CONTINUOUS
 62
               4
 10
-221.98454247548409
 20
-110.79354710474581
  0
VERTEX
  8
___
  6
CONTINUOUS
 62
               4
 10
-221.98454247548409
 20
-120.29354710474581
  0
VERTEX
  8
___
  6
CONTINUOUS
 62
               4
 10
-227.98454247548409
 20
-120.29354710474581
  0
SEQEND
  8
___
  6
CONTINUOUS
 62
               4
  0
POLYLINE
  8
__
  6
CONTINUOUS
 62
               4
 66
               1
 70
               1
  0
VERTEX
  8
__
  6
CONTINUOUS
 62
               4
 10
-223.13708532914745
 20
-108.87243599363455
  0
VERTEX
  8
__
  6
CONTINUOUS
 62
               4
 10
-221.00311073293199
 20
-108.87243599363455
  0
VERTEX
  8
__
  6
CONTINUOUS
 62
               4
 10
-221.00311073293199
 20
-118.22243599363446
  0
VERTEX
  8
__
  6
CONTINUOUS
 62
               4
 10
-223.13708532914745
 20
-118.22243599363446
  0
SEQEND
  8
__
  6
CONTINUOUS
 62
               4
  0
POLYLINE
  8
__
  6
CONTINUOUS
 62
               4
 66
               1
 70
               1
  0
VERTEX
  8
__
  6
CONTINUOUS
 62
               4
 10
-223.57009803103995
 20
-108.87243599363455
  0
VERTEX
  8
__
  6
CONTINUOUS
 62
               4
 10
-220.57009803103995
 20
-108.87243599363455
  0
VERTEX
  8
__
  6
CONTINUOUS
 62
               4
 10
-220.57009803103995
 20
-118.22243599363446
  0
VERTEX
  8
__
  6
CONTINUOUS
 62
               4
 10
-223.57009803103995
 20
-118.22243599363446
  0
SEQEND
  8
__
  6
CONTINUOUS
 62
               4
  0
POLYLINE
  8
__
  6
CONTINUOUS
 62
               4
 66
               1
 70
               1
  0
VERTEX
  8
__
  6
CONTINUOUS
 62
               4
 10
-220.57009803103995
 20
-118.72243599363446
  0
VERTEX
  8
__
  6
CONTINUOUS
 62
               4
 10
-218.9200980310394
 20
-120.37243599363455
  0
VERTEX
  8
__
  6
CONTINUOUS
 62
               4
 10
-225.22009803103958
 20
-120.37243599363455
  0
VERTEX
  8
__
  6
CONTINUOUS
 62
               4
 10
-223.57009803103995
 20
-118.72243599363446
  0
SEQEND
  8
__
  6
CONTINUOUS
 62
               4
  0
POLYLINE
  8
__
  6
CONTINUOUS
 62
               4
 66
               1
 70
               1
  0
VERTEX
  8
__
  6
CONTINUOUS
 62
               4
 10
-223.35359168009347
 20
-118.22243599363446
  0
VERTEX
  8
__
  6
CONTINUOUS
 62
               4
 10
-220.78660438198551
 20
-118.22243599363446
  0
VERTEX
  8
__
  6
CONTINUOUS
 62
               4
 10
-220.78660438198551
 20
-118.72243599363446
  0
VERTEX
  8
__
  6
CONTINUOUS
 62
               4
 10
-223.35359168009347
 20
-118.72243599363446
  0
SEQEND
  8
__
  6
CONTINUOUS
 62
               4
  0
TEXT
  8
__
 62
               4
 10
-223.39565358659524
 20
-120.29354710474588
 40
1.0858940972222222
  1
11.5
  7
_______
 11
-223.39565358659524
 21
-119.01009745196811
  0
POLYLINE
  8
___
  6
CONTINUOUS
 62
               4
 66
               1
 70
               1
  0
VERTEX
  8
___
  6
CONTINUOUS
 62
               4
 10
-242.98454247548409
 20
-86.293547104745812
  0
VERTEX
  8
___
  6
CONTINUOUS
 62
               4
 10
-192.98454247548409
 20
-86.293547104745812
  0
VERTEX
  8
___
  6
CONTINUOUS
 62
               4
 10
-192.98454247548409
 20
-91.793547104745812
  0
VERTEX
  8
___
  6
CONTINUOUS
 62
               4
 10
-242.98454247548409
 20
-91.793547104745812
  0
SEQEND
  8
___
  6
CONTINUOUS
 62
               4
  0
POLYLINE
  8
___
  6
CONTINUOUS
 62
               4
 66
               1
 70
               1
  0
VERTEX
  8
___
  6
CONTINUOUS
 62
               4
 10
-244.98454247548409
 20
-86.293547104745812
  0
VERTEX
  8
___
  6
CONTINUOUS
 62
               4
 10
-190.98454247548409
 20
-86.293547104745812
  0
VERTEX
  8
___
  6
CONTINUOUS
 62
               4
 10
-190.98454247548409
 20
-91.793547104745812
  0
VERTEX
  8
___
  6
CONTINUOUS
 62
               4
 10
-244.98454247548409
 20
-91.793547104745812
  0
SEQEND
  8
___
  6
CONTINUOUS
 62
               4
  0
POLYLINE
  8
__
  6
CONTINUOUS
 62
               4
 66
               1
 70
               1
  0
VERTEX
  8
__
  6
CONTINUOUS
 62
               4
 10
-209.05152977359205
 20
-87.143547104746176
  0
VERTEX
  8
__
  6
CONTINUOUS
 62
               4
 10
-206.91755517737704
 20
-87.143547104746176
  0
VERTEX
  8
__
  6
CONTINUOUS
 62
               4
 10
-206.91755517737704
 20
-99.143547104746176
  0
VERTEX
  8
__
  6
CONTINUOUS
 62
               4
 10
-209.05152977359205
 20
-99.143547104746176
  0
SEQEND
  8
__
  6
CONTINUOUS
 62
               4
  0
POLYLINE
  8
__
  6
CONTINUOUS
 62
               4
 66
               1
 70
               1
  0
VERTEX
  8
__
  6
CONTINUOUS
 62
               4
 10
-209.484542475485
 20
-87.143547104746176
  0
VERTEX
  8
__
  6
CONTINUOUS
 62
               4
 10
-206.484542475485
 20
-87.143547104746176
  0
VERTEX
  8
__
  6
CONTINUOUS
 62
               4
 10
-206.484542475485
 20
-99.143547104746176
  0
VERTEX
  8
__
  6
CONTINUOUS
 62
               4
 10
-209.484542475485
 20
-99.143547104746176
  0
SEQEND
  8
__
  6
CONTINUOUS
 62
               4
  0
POLYLINE
  8
__
  6
CONTINUOUS
 62
               4
 66
               1
 70
               1
  0
VERTEX
  8
__
  6
CONTINUOUS
 62
               4
 10
-206.484542475485
 20
-99.643547104746176
  0
VERTEX
  8
__
  6
CONTINUOUS
 62
               4
 10
-204.83454247548445
 20
-101.29354710474581
  0
VERTEX
  8
__
  6
CONTINUOUS
 62
               4
 10
-211.13454247548464
 20
-101.29354710474581
  0
VERTEX
  8
__
  6
CONTINUOUS
 62
               4
 10
-209.484542475485
 20
-99.643547104746176
  0
SEQEND
  8
__
  6
CONTINUOUS
 62
               4
  0
POLYLINE
  8
__
  6
CONTINUOUS
 62
               4
 66
               1
 70
               1
  0
VERTEX
  8
__
  6
CONTINUOUS
 62
               4
 10
-209.26803612453853
 20
-99.143547104746176
  0
VERTEX
  8
__
  6
CONTINUOUS
 62
               4
 10
-206.70104882643056
 20
-99.143547104746176
  0
VERTEX
  8
__
  6
CONTINUOUS
 62
               4
 10
-206.70104882643056
 20
-99.643547104746176
  0
VERTEX
  8
__
  6
CONTINUOUS
 62
               4
 10
-209.26803612453853
 20
-99.643547104746176
  0
SEQEND
  8
__
  6
CONTINUOUS
 62
               4
  0
TEXT
  8
__
 62
               4
 10
-208.14009803103971
 20
-101.05465821585774
 40
1.0858940972222222
  1
14
  7
_______
 11
-208.14009803103971
 21
-99.771208563079966
  0
POLYLINE
  8
__
  6
CONTINUOUS
 62
               4
 66
               1
 70
               1
  0
VERTEX
  8
__
  6
CONTINUOUS
 62
               4
 10
-215.05152977359205
 20
-87.143547104746176
  0
VERTEX
  8
__
  6
CONTINUOUS
 62
               4
 10
-212.91755517737704
 20
-87.143547104746176
  0
VERTEX
  8
__
  6
CONTINUOUS
 62
               4
 10
-212.91755517737704
 20
-99.143547104746176
  0
VERTEX
  8
__
  6
CONTINUOUS
 62
               4
 10
-215.05152977359205
 20
-99.143547104746176
  0
SEQEND
  8
__
  6
CONTINUOUS
 62
               4
  0
POLYLINE
  8
__
  6
CONTINUOUS
 62
               4
 66
               1
 70
               1
  0
VERTEX
  8
__
  6
CONTINUOUS
 62
               4
 10
-215.484542475485
 20
-87.143547104746176
  0
VERTEX
  8
__
  6
CONTINUOUS
 62
               4
 10
-212.484542475485
 20
-87.143547104746176
  0
VERTEX
  8
__
  6
CONTINUOUS
 62
               4
 10
-212.484542475485
 20
-99.143547104746176
  0
VERTEX
  8
__
  6
CONTINUOUS
 62
               4
 10
-215.484542475485
 20
-99.143547104746176
  0
SEQEND
  8
__
  6
CONTINUOUS
 62
               4
  0
POLYLINE
  8
__
  6
CONTINUOUS
 62
               4
 66
               1
 70
               1
  0
VERTEX
  8
__
  6
CONTINUOUS
 62
               4
 10
-212.484542475485
 20
-99.643547104746176
  0
VERTEX
  8
__
  6
CONTINUOUS
 62
               4
 10
-210.83454247548445
 20
-101.29354710474581
  0
VERTEX
  8
__
  6
CONTINUOUS
 62
               4
 10
-217.13454247548464
 20
-101.29354710474581
  0
VERTEX
  8
__
  6
CONTINUOUS
 62
               4
 10
-215.484542475485
 20
-99.643547104746176
  0
SEQEND
  8
__
  6
CONTINUOUS
 62
               4
  0
POLYLINE
  8
__
  6
CONTINUOUS
 62
               4
 66
               1
 70
               1
  0
VERTEX
  8
__
  6
CONTINUOUS
 62
               4
 10
-215.26803612453853
 20
-99.143547104746176
  0
VERTEX
  8
__
  6
CONTINUOUS
 62
               4
 10
-212.70104882643056
 20
-99.143547104746176
  0
VERTEX
  8
__
  6
CONTINUOUS
 62
               4
 10
-212.70104882643056
 20
-99.643547104746176
  0
VERTEX
  8
__
  6
CONTINUOUS
 62
               4
 10
-215.26803612453853
 20
-99.643547104746176
  0
SEQEND
  8
__
  6
CONTINUOUS
 62
               4
  0
TEXT
  8
__
 62
               4
 10
-214.14009803103971
 20
-101.05465821585774
 40
1.0858940972222222
  1
14
  7
_______
 11
-214.14009803103971
 21
-99.771208563079966
  0
POLYLINE
  8
___
  6
CONTINUOUS
 62
               4
 66
               1
 70
               1
  0
VERTEX
  8
___
  6
CONTINUOUS
 62
               4
 10
-217.88454247548464
 20
-87.143547104746176
  0
VERTEX
  8
___
  6
CONTINUOUS
 62
               4
 10
-204.08454247548445
 20
-87.143547104746176
  0
VERTEX
  8
___
  6
CONTINUOUS
 62
               4
 10
-204.08454247548445
 20
-89.143547104746176
  0
VERTEX
  8
___
  6
CONTINUOUS
 62
               4
 10
-217.88454247548464
 20
-89.143547104746176
  0
SEQEND
  8
___
  6
CONTINUOUS
 62
               4
  0
POLYLINE
  8
__
  6
CONTINUOUS
 62
               4
 66
               1
 70
               1
  0
VERTEX
  8
__
  6
CONTINUOUS
 62
               4
 10
-229.13708532914745
 20
-108.87243599363455
  0
VERTEX
  8
__
  6
CONTINUOUS
 62
               4
 10
-227.00311073293199
 20
-108.87243599363455
  0
VERTEX
  8
__
  6
CONTINUOUS
 62
               4
 10
-227.00311073293199
 20
-118.22243599363446
  0
VERTEX
  8
__
  6
CONTINUOUS
 62
               4
 10
-229.13708532914745
 20
-118.22243599363446
  0
SEQEND
  8
__
  6
CONTINUOUS
 62
               4
  0
POLYLINE
  8
__
  6
CONTINUOUS
 62
               4
 66
               1
 70
               1
  0
VERTEX
  8
__
  6
CONTINUOUS
 62
               4
 10
-229.57009803103995
 20
-108.87243599363455
  0
VERTEX
  8
__
  6
CONTINUOUS
 62
               4
 10
-226.57009803103995
 20
-108.87243599363455
  0
VERTEX
  8
__
  6
CONTINUOUS
 62
               4
 10
-226.57009803103995
 20
-118.22243599363446
  0
VERTEX
  8
__
  6
CONTINUOUS
 62
               4
 10
-229.57009803103995
 20
-118.22243599363446
  0
SEQEND
  8
__
  6
CONTINUOUS
 62
               4
  0
POLYLINE
  8
__
  6
CONTINUOUS
 62
               4
 66
               1
 70
               1
  0
VERTEX
  8
__
  6
CONTINUOUS
 62
               4
 10
-226.57009803103995
 20
-118.72243599363446
  0
VERTEX
  8
__
  6
CONTINUOUS
 62
               4
 10
-224.9200980310394
 20
-120.37243599363455
  0
VERTEX
  8
__
  6
CONTINUOUS
 62
               4
 10
-231.22009803103958
 20
-120.37243599363455
  0
VERTEX
  8
__
  6
CONTINUOUS
 62
               4
 10
-229.57009803103995
 20
-118.72243599363446
  0
SEQEND
  8
__
  6
CONTINUOUS
 62
               4
  0
POLYLINE
  8
__
  6
CONTINUOUS
 62
               4
 66
               1
 70
               1
  0
VERTEX
  8
__
  6
CONTINUOUS
 62
               4
 10
-229.35359168009347
 20
-118.22243599363446
  0
VERTEX
  8
__
  6
CONTINUOUS
 62
               4
 10
-226.78660438198551
 20
-118.22243599363446
  0
VERTEX
  8
__
  6
CONTINUOUS
 62
               4
 10
-226.78660438198551
 20
-118.72243599363446
  0
VERTEX
  8
__
  6
CONTINUOUS
 62
               4
 10
-229.35359168009347
 20
-118.72243599363446
  0
SEQEND
  8
__
  6
CONTINUOUS
 62
               4
  0
TEXT
  8
__
 62
               4
 10
-229.39565358659524
 20
-120.29354710474588
 40
1.0858940972222222
  1
11.5
  7
_______
 11
-229.39565358659524
 21
-119.01009745196811
  0
POLYLINE
  8
__
  6
CONTINUOUS
 62
               4
 66
               1
 70
               1
  0
VERTEX
  8
__
  6
CONTINUOUS
 62
               4
 10
-219.05152977359205
 20
-85.793547104745812
  0
VERTEX
  8
__
  6
CONTINUOUS
 62
               4
 10
-216.91755517737613
 20
-85.793547104745812
  0
VERTEX
  8
__
  6
CONTINUOUS
 62
               4
 10
-216.91755517737613
 20
-93.643547104745721
  0
VERTEX
  8
__
  6
CONTINUOUS
 62
               4
 10
-219.05152977359205
 20
-93.643547104745721
  0
SEQEND
  8
__
  6
CONTINUOUS
 62
               4
  0
POLYLINE
  8
__
  6
CONTINUOUS
 62
               4
 66
               1
 70
               1
  0
VERTEX
  8
__
  6
CONTINUOUS
 62
               4
 10
-219.48454247548409
 20
-85.793547104745812
  0
VERTEX
  8
__
  6
CONTINUOUS
 62
               4
 10
-216.48454247548409
 20
-85.793547104745812
  0
VERTEX
  8
__
  6
CONTINUOUS
 62
               4
 10
-216.48454247548409
 20
-93.643547104745721
  0
VERTEX
  8
__
  6
CONTINUOUS
 62
               4
 10
-219.48454247548409
 20
-93.643547104745721
  0
SEQEND
  8
__
  6
CONTINUOUS
 62
               4
  0
POLYLINE
  8
__
  6
CONTINUOUS
 62
               4
 66
               1
 70
               1
  0
VERTEX
  8
__
  6
CONTINUOUS
 62
               4
 10
-219.48454247548409
 20
-85.293547104745812
  0
VERTEX
  8
__
  6
CONTINUOUS
 62
               4
 10
-221.13454247548464
 20
-83.643547104745721
  0
VERTEX
  8
__
  6
CONTINUOUS
 62
               4
 10
-214.83454247548445
 20
-83.643547104745721
  0
VERTEX
  8
__
  6
CONTINUOUS
 62
               4
 10
-216.48454247548409
 20
-85.293547104745812
  0
SEQEND
  8
__
  6
CONTINUOUS
 62
               4
  0
POLYLINE
  8
__
  6
CONTINUOUS
 62
               4
 66
               1
 70
               1
  0
VERTEX
  8
__
  6
CONTINUOUS
 62
               4
 10
-219.26803612453853
 20
-85.293547104745812
  0
VERTEX
  8
__
  6
CONTINUOUS
 62
               4
 10
-216.70104882643056
 20
-85.293547104745812
  0
VERTEX
  8
__
  6
CONTINUOUS
 62
               4
 10
-216.70104882643056
 20
-85.793547104745812
  0
VERTEX
  8
__
  6
CONTINUOUS
 62
               4
 10
-219.26803612453853
 20
-85.793547104745812
  0
SEQEND
  8
__
  6
CONTINUOUS
 62
               4
  0
TEXT
  8
__
 62
               4
 10
-219.0873202532627
 20
-85.293547104745429
 40
1.0858940972222222
  1
10
  7
_______
 11
-219.0873202532627
 21
-84.010097451967653
  0
POLYLINE
  8
___
  6
CONTINUOUS
 62
               4
 66
               1
 70
               1
  0
VERTEX
  8
___
  6
CONTINUOUS
 62
               4
 10
-220.48454247548409
 20
-120.29354710474581
  0
VERTEX
  8
___
  6
CONTINUOUS
 62
               4
 10
-215.48454247548409
 20
-120.29354710474581
  0
VERTEX
  8
___
  6
CONTINUOUS
 62
               4
 10
-215.48454247548409
 20
-126.29354710474581
  0
VERTEX
  8
___
  6
CONTINUOUS
 62
               4
 10
-220.48454247548409
 20
-126.29354710474581
  0
SEQEND
  8
___
  6
CONTINUOUS
 62
               4
  0
POLYLINE
  8
__
  6
CONTINUOUS
 62
               4
 66
               1
 70
               1
  0
VERTEX
  8
__
  6
CONTINUOUS
 62
               4
 10
-219.05152977359205
 20
-120.4435471047459
  0
VERTEX
  8
__
  6
CONTINUOUS
 62
               4
 10
-216.91755517737613
 20
-120.4435471047459
  0
VERTEX
  8
__
  6
CONTINUOUS
 62
               4
 10
-216.91755517737613
 20
-126.29354710474581
  0
VERTEX
  8
__
  6
CONTINUOUS
 62
               4
 10
-219.05152977359205
 20
-126.29354710474581
  0
SEQEND
  8
__
  6
CONTINUOUS
 62
               4
  0
POLYLINE
  8
__
  6
CONTINUOUS
 62
               4
 66
               1
 70
               1
  0
VERTEX
  8
__
  6
CONTINUOUS
 62
               4
 10
-219.48454247548409
 20
-120.4435471047459
  0
VERTEX
  8
__
  6
CONTINUOUS
 62
               4
 10
-216.48454247548409
 20
-120.4435471047459
  0
VERTEX
  8
__
  6
CONTINUOUS
 62
               4
 10
-216.48454247548409
 20
-126.29354710474581
  0
VERTEX
  8
__
  6
CONTINUOUS
 62
               4
 10
-219.48454247548409
 20
-126.29354710474581
  0
SEQEND
  8
__
  6
CONTINUOUS
 62
               4
  0
POLYLINE
  8
__
  6
CONTINUOUS
 62
               4
 66
               1
 70
               1
  0
VERTEX
  8
__
  6
CONTINUOUS
 62
               4
 10
-219.48454247548409
 20
-119.9435471047459
  0
VERTEX
  8
__
  6
CONTINUOUS
 62
               4
 10
-221.13454247548464
 20
-118.29354710474581
  0
VERTEX
  8
__
  6
CONTINUOUS
 62
               4
 10
-214.83454247548445
 20
-118.29354710474581
  0
VERTEX
  8
__
  6
CONTINUOUS
 62
               4
 10
-216.48454247548409
 20
-119.9435471047459
  0
SEQEND
  8
__
  6
CONTINUOUS
 62
               4
  0
POLYLINE
  8
__
  6
CONTINUOUS
 62
               4
 66
               1
 70
               1
  0
VERTEX
  8
__
  6
CONTINUOUS
 62
               4
 10
-219.26803612453853
 20
-119.9435471047459
  0
VERTEX
  8
__
  6
CONTINUOUS
 62
               4
 10
-216.70104882643056
 20
-119.9435471047459
  0
VERTEX
  8
__
  6
CONTINUOUS
 62
               4
 10
-216.70104882643056
 20
-120.4435471047459
  0
VERTEX
  8
__
  6
CONTINUOUS
 62
               4
 10
-219.26803612453853
 20
-120.4435471047459
  0
SEQEND
  8
__
  6
CONTINUOUS
 62
               4
  0
TEXT
  8
__
 62
               4
 10
-218.90382660420795
 20
-119.94354710474552
 40
1.0858940972222222
  1
8
  7
_______
 11
-218.90382660420795
 21
-118.66009745196774
  0
POLYLINE
  8
___
  6
CONTINUOUS
 62
               4
 66
               1
 70
               1
  0
VERTEX
  8
___
  6
CONTINUOUS
 62
               4
 10
-253.58454247548445
 20
-111.54354710474581
  0
VERTEX
  8
___
  6
CONTINUOUS
 62
               4
 10
-196.38454247548464
 20
-111.54354710474581
  0
VERTEX
  8
___
  6
CONTINUOUS
 62
               4
 10
-196.38454247548464
 20
-117.54354710474581
  0
VERTEX
  8
___
  6
CONTINUOUS
 62
               4
 10
-253.58454247548445
 20
-117.54354710474581
  0
SEQEND
  8
___
  6
CONTINUOUS
 62
               4
  0
POLYLINE
  8
___
  6
CONTINUOUS
 62
               4
 66
               1
 70
               1
  0
VERTEX
  8
___
  6
CONTINUOUS
 62
               4
 10
-239.58454247548445
 20
-92.543547104745812
  0
VERTEX
  8
___
  6
CONTINUOUS
 62
               4
 10
-182.38454247548464
 20
-92.543547104745812
  0
VERTEX
  8
___
  6
CONTINUOUS
 62
               4
 10
-182.38454247548464
 20
-98.543547104745812
  0
VERTEX
  8
___
  6
CONTINUOUS
 62
               4
 10
-239.58454247548445
 20
-98.543547104745812
  0
SEQEND
  8
___
  6
CONTINUOUS
 62
               4
  0
POLYLINE
  8
___
  6
CONTINUOUS
 62
               4
 66
               1
 70
               1
  0
VERTEX
  8
___
  6
CONTINUOUS
 62
               4
 10
-246.58454247548445
 20
-102.04354710474581
  0
VERTEX
  8
___
  6
CONTINUOUS
 62
               4
 10
-189.38454247548464
 20
-102.04354710474581
  0
VERTEX
  8
___
  6
CONTINUOUS
 62
               4
 10
-189.38454247548464
 20
-108.04354710474581
  0
VERTEX
  8
___
  6
CONTINUOUS
 62
               4
 10
-246.58454247548445
 20
-108.04354710474581
  0
SEQEND
  8
___
  6
CONTINUOUS
 62
               4
  0
POLYLINE
  8
__
  6
CONTINUOUS
 62
               4
 66
               1
 70
               1
  0
VERTEX
  8
__
  6
CONTINUOUS
 62
               4
 10
-221.98454247548409
 20
-120.29354710474581
  0
VERTEX
  8
__
  6
CONTINUOUS
 62
               4
 10
-213.98454247548409
 20
-120.29354710474581
  0
VERTEX
  8
__
  6
CONTINUOUS
 62
               4
 10
-213.98454247548409
 20
-122.79354710474581
  0
VERTEX
  8
__
  6
CONTINUOUS
 62
               4
 10
-221.98454247548409
 20
-122.79354710474581
  0
SEQEND
  8
__
  6
CONTINUOUS
 62
               4
  0
POLYLINE
  8
__
  6
CONTINUOUS
 62
               4
 66
               1
 70
               1
  0
VERTEX
  8
__
  6
CONTINUOUS
 62
               4
 10
-222.58454247548445
 20
-120.29354710474581
  0
VERTEX
  8
__
  6
CONTINUOUS
 62
               4
 10
-213.38454247548373
 20
-120.29354710474581
  0
VERTEX
  8
__
  6
CONTINUOUS
 62
               4
 10
-213.38454247548373
 20
-120.89354710474618
  0
VERTEX
  8
__
  6
CONTINUOUS
 62
               4
 10
-222.58454247548445
 20
-120.89354710474618
  0
SEQEND
  8
__
  6
CONTINUOUS
 62
               4
  0
LINE
  8
__
  6
STYLE_14
 62
               4
 10
-215.48454247548409
 20
-122.79354710474581
 11
-215.48454247548409
 21
-120.29354710474581
  0
LINE
  8
__
  6
STYLE_14
 62
               4
 10
-220.48454247548409
 20
-122.79354710474581
 11
-220.48454247548409
 21
-120.29354710474581
  0
POLYLINE
  8
___
  6
CONTINUOUS
 62
               4
 66
               1
 70
               1
  0
VERTEX
  8
___
  6
CONTINUOUS
 62
               4
 10
-220.48454247548409
 20
-85.793547104745812
  0
VERTEX
  8
___
  6
CONTINUOUS
 62
               4
 10
-215.48454247548409
 20
-85.793547104745812
  0
VERTEX
  8
___
  6
CONTINUOUS
 62
               4
 10
-215.48454247548409
 20
-91.793547104745812
  0
VERTEX
  8
___
  6
CONTINUOUS
 62
               4
 10
-220.48454247548409
 20
-91.793547104745812
  0
SEQEND
  8
___
  6
CONTINUOUS
 62
               4
  0
POLYLINE
  8
__-2
  6
STYLE_14
 62
               4
 66
               1
 70
               1
  0
VERTEX
  8
__-2
  6
STYLE_14
 62
               4
 10
-220.48454247548409
 20
-85.793547104745812
  0
VERTEX
  8
__-2
  6
STYLE_14
 62
               4
 10
-215.48454247548409
 20
-85.793547104745812
  0
VERTEX
  8
__-2
  6
STYLE_14
 62
               4
 10
-215.48454247548409
 20
-88.293547104745812
  0
VERTEX
  8
__-2
  6
STYLE_14
 62
               4
 10
-220.48454247548409
 20
-88.293547104745812
  0
SEQEND
  8
__-2
  6
STYLE_14
 62
               4
  0
POLYLINE
  8
__-2
  6
CONTINUOUS
 62
               4
 66
               1
 70
               1
  0
VERTEX
  8
__-2
  6
CONTINUOUS
 62
               4
 10
-221.98454247548409
 20
-85.793547104745812
  0
VERTEX
  8
__-2
  6
CONTINUOUS
 62
               4
 10
-213.98454247548409
 20
-85.793547104745812
  0
VERTEX
  8
__-2
  6
CONTINUOUS
 62
               4
 10
-213.98454247548409
 20
-88.293547104745812
  0
VERTEX
  8
__-2
  6
CONTINUOUS
 62
               4
 10
-221.98454247548409
 20
-88.293547104745812
  0
SEQEND
  8
__-2
  6
CONTINUOUS
 62
               4
  0
POLYLINE
  8
___
  6
CONTINUOUS
 62
               4
 66
               1
 70
               1
  0
VERTEX
  8
___
  6
CONTINUOUS
 62
               4
 10
-229.10031557997092
 20
-86.293547104745812
  0
VERTEX
  8
___
  6
CONTINUOUS
 62
               4
 10
-206.86876937099726
 20
-86.293547104745812
  0
VERTEX
  8
___
  6
CONTINUOUS
 62
               4
 10
-206.86876937099726
 20
-88.293547104745812
  0
VERTEX
  8
___
  6
CONTINUOUS
 62
               4
 10
-229.10031557997092
 20
-88.293547104745812
  0
SEQEND
  8
___
  6
CONTINUOUS
 62
               4
  0
POLYLINE
  8
___
  6
CONTINUOUS
 62
               4
 66
               1
 70
               1
  0
VERTEX
  8
___
  6
CONTINUOUS
 62
               4
 10
-259.50836865165923
 20
-120.89354710474618
  0
VERTEX
  8
___
  6
CONTINUOUS
 62
               4
 10
-152.59056179615629
 20
-120.89354710474618
  0
VERTEX
  8
___
  6
CONTINUOUS
 62
               4
 10
-152.59056179615629
 20
-122.89354710474618
  0
VERTEX
  8
___
  6
CONTINUOUS
 62
               4
 10
-259.50836865165923
 20
-122.89354710474618
  0
SEQEND
  8
___
  6
CONTINUOUS
 62
               4
  0
POLYLINE
  8
___
  6
CONTINUOUS
 62
               4
 66
               1
 70
               1
  0
VERTEX
  8
___
  6
CONTINUOUS
 62
               4
 10
-259.50836865165923
 20
-83.693547104745448
  0
VERTEX
  8
___
  6
CONTINUOUS
 62
               4
 10
-152.59056179615629
 20
-83.693547104745448
  0
VERTEX
  8
___
  6
CONTINUOUS
 62
               4
 10
-152.59056179615629
 20
-85.693547104745448
  0
VERTEX
  8
___
  6
CONTINUOUS
 62
               4
 10
-259.50836865165923
 20
-85.693547104745448
  0
SEQEND
  8
___
  6
CONTINUOUS
 62
               4
  0
POLYLINE
  8
___
  6
STYLE_11
 62
               4
 66
               1
 70
               1
  0
VERTEX
  8
___
  6
STYLE_11
 62
               4
 10
-250.75836865165923
 20
-85.693547104745448
  0
VERTEX
  8
___
  6
STYLE_11
 62
               4
 10
-248.25836865165923
 20
-85.693547104745448
  0
VERTEX
  8
___
  6
STYLE_11
 62
               4
 10
-248.25836865165923
 20
-120.89354710474618
  0
VERTEX
  8
___
  6
STYLE_11
 62
               4
 10
-250.75836865165923
 20
-120.89354710474618
  0
SEQEND
  8
___
  6
STYLE_11
 62
               4
  0
POLYLINE
  8
___
  6
CONTINUOUS
 62
               4
 66
               1
 70
               1
  0
VERTEX
  8
___
  6
CONTINUOUS
 62
               4
 10
-252.00836865165923
 20
-85.693547104745448
  0
VERTEX
  8
___
  6
CONTINUOUS
 62
               4
 10
-247.00836865165923
 20
-85.693547104745448
  0
VERTEX
  8
___
  6
CONTINUOUS
 62
               4
 10
-247.00836865165923
 20
-120.89354710474618
  0
VERTEX
  8
___
  6
CONTINUOUS
 62
               4
 10
-252.00836865165923
 20
-120.89354710474618
  0
SEQEND
  8
___
  6
CONTINUOUS
 62
               4
  0
TEXT
  8
___
 62
               4
 10
-250.3750353183259
 20
-107.05333783718173
 40
3.2576822916666663
  1
5
  7
_______
 11
-250.3750353183259
 21
-103.20298887884839
  0
POLYLINE
  8
___
  6
STYLE_11
 62
               4
 66
               1
 70
               1
  0
VERTEX
  8
___
  6
STYLE_11
 62
               4
 10
-250.75836865165923
 20
-122.89354710474618
  0
VERTEX
  8
___
  6
STYLE_11
 62
               4
 10
-248.25836865165923
 20
-122.89354710474618
  0
VERTEX
  8
___
  6
STYLE_11
 62
               4
 10
-248.25836865165923
 20
-127.89354710474618
  0
VERTEX
  8
___
  6
STYLE_11
 62
               4
 10
-250.75836865165923
 20
-127.89354710474618
  0
SEQEND
  8
___
  6
STYLE_11
 62
               4
  0
POLYLINE
  8
___
  6
CONTINUOUS
 62
               4
 66
               1
 70
               1
  0
VERTEX
  8
___
  6
CONTINUOUS
 62
               4
 10
-252.00836865165923
 20
-122.89354710474618
  0
VERTEX
  8
___
  6
CONTINUOUS
 62
               4
 10
-247.00836865165923
 20
-122.89354710474618
  0
VERTEX
  8
___
  6
CONTINUOUS
 62
               4
 10
-247.00836865165923
 20
-127.89354710474618
  0
VERTEX
  8
___
  6
CONTINUOUS
 62
               4
 10
-252.00836865165923
 20
-127.89354710474618
  0
SEQEND
  8
___
  6
CONTINUOUS
 62
               4
  0
TEXT
  8
___
 62
               4
 10
-250.3750353183259
 20
-127.55961586408851
 40
3.2576822916666663
  1
5
  7
_______
 11
-250.3750353183259
 21
-123.70926690575517
  0
POLYLINE
  8
___
  6
STYLE_11
 62
               4
 66
               1
 70
               1
  0
VERTEX
  8
___
  6
STYLE_11
 62
               4
 10
-250.75836865165923
 20
-78.693547104745448
  0
VERTEX
  8
___
  6
STYLE_11
 62
               4
 10
-248.25836865165923
 20
-78.693547104745448
  0
VERTEX
  8
___
  6
STYLE_11
 62
               4
 10
-248.25836865165923
 20
-83.693547104745448
  0
VERTEX
  8
___
  6
STYLE_11
 62
               4
 10
-250.75836865165923
 20
-83.693547104745448
  0
SEQEND
  8
___
  6
STYLE_11
 62
               4
  0
POLYLINE
  8
___
  6
CONTINUOUS
 62
               4
 66
               1
 70
               1
  0
VERTEX
  8
___
  6
CONTINUOUS
 62
               4
 10
-252.00836865165923
 20
-78.693547104745448
  0
VERTEX
  8
___
  6
CONTINUOUS
 62
               4
 10
-247.00836865165923
 20
-78.693547104745448
  0
VERTEX
  8
___
  6
CONTINUOUS
 62
               4
 10
-247.00836865165923
 20
-83.693547104745448
  0
VERTEX
  8
___
  6
CONTINUOUS
 62
               4
 10
-252.00836865165923
 20
-83.693547104745448
  0
SEQEND
  8
___
  6
CONTINUOUS
 62
               4
  0
TEXT
  8
___
 62
               4
 10
-250.3750353183259
 20
-83.359615864087786
 40
3.2576822916666663
  1
5
  7
_______
 11
-250.3750353183259
 21
-79.509266905754444
  0
POLYLINE
  8
__
  6
CONTINUOUS
 62
               4
 66
               1
 70
               1
  0
VERTEX
  8
__
  6
CONTINUOUS
 62
               4
 10
-253.50836865165923
 20
-123.69354710474636
  0
VERTEX
  8
__
  6
CONTINUOUS
 62
               4
 10
-245.50836865165923
 20
-123.69354710474636
  0
VERTEX
  8
__
  6
CONTINUOUS
 62
               4
 10
-245.50836865165923
 20
-126.19354710474636
  0
VERTEX
  8
__
  6
CONTINUOUS
 62
               4
 10
-253.50836865165923
 20
-126.19354710474636
  0
SEQEND
  8
__
  6
CONTINUOUS
 62
               4
  0
POLYLINE
  8
__
  6
CONTINUOUS
 62
               4
 66
               1
 70
               1
  0
VERTEX
  8
__
  6
CONTINUOUS
 62
               4
 10
-254.10836865165959
 20
-123.69354710474636
  0
VERTEX
  8
__
  6
CONTINUOUS
 62
               4
 10
-244.90836865165886
 20
-123.69354710474636
  0
VERTEX
  8
__
  6
CONTINUOUS
 62
               4
 10
-244.90836865165886
 20
-124.29354710474672
  0
VERTEX
  8
__
  6
CONTINUOUS
 62
               4
 10
-254.10836865165959
 20
-124.29354710474672
  0
SEQEND
  8
__
  6
CONTINUOUS
 62
               4
  0
LINE
  8
__
  6
STYLE_14
 62
               4
 10
-247.00836865165923
 20
-126.19354710474636
 11
-247.00836865165923
 21
-123.69354710474636
  0
LINE
  8
__
  6
STYLE_14
 62
               4
 10
-252.00836865165923
 20
-126.19354710474636
 11
-252.00836865165923
 21
-123.69354710474636
  0
POLYLINE
  8
0
  6
CONTINUOUS
 62
               4
 66
               1
 70
               1
  0
VERTEX
  8
0
  6
CONTINUOUS
 62
               4
 10
-252.00836865165923
 20
-122.89354710474618
  0
VERTEX
  8
0
  6
CONTINUOUS
 62
               4
 10
-247.00836865165923
 20
-122.89354710474618
  0
VERTEX
  8
0
  6
CONTINUOUS
 62
               4
 10
-247.00836865165923
 20
-123.69354710474636
  0
VERTEX
  8
0
  6
CONTINUOUS
 62
               4
 10
-252.00836865165923
 20
-123.69354710474636
  0
SEQEND
  8
0
  6
CONTINUOUS
 62
               4
  0
POLYLINE
  8
0
  6
CONTINUOUS
 62
               4
 66
               1
 70
               1
  0
VERTEX
  8
0
  6
CONTINUOUS
 62
               4
 10
-255.50836865165923
 20
-122.89354710474618
  0
VERTEX
  8
0
  6
CONTINUOUS
 62
               4
 10
-243.50836865165923
 20
-122.89354710474618
  0
VERTEX
  8
0
  6
CONTINUOUS
 62
               4
 10
-243.50836865165923
 20
-123.69354710474636
  0
VERTEX
  8
0
  6
CONTINUOUS
 62
               4
 10
-255.50836865165923
 20
-123.69354710474636
  0
SEQEND
  8
0
  6
CONTINUOUS
 62
               4
  0
POLYLINE
  8
0
  6
CONTINUOUS
 62
               4
 66
               1
 70
               1
  0
VERTEX
  8
0
  6
CONTINUOUS
 62
               4
 10
-252.00836865165923
 20
-82.893547104745267
  0
VERTEX
  8
0
  6
CONTINUOUS
 62
               4
 10
-247.00836865165923
 20
-82.893547104745267
  0
VERTEX
  8
0
  6
CONTINUOUS
 62
               4
 10
-247.00836865165923
 20
-83.693547104745448
  0
VERTEX
  8
0
  6
CONTINUOUS
 62
               4
 10
-252.00836865165923
 20
-83.693547104745448
  0
SEQEND
  8
0
  6
CONTINUOUS
 62
               4
  0
POLYLINE
  8
0
  6
CONTINUOUS
 62
               4
 66
               1
 70
               1
  0
VERTEX
  8
0
  6
CONTINUOUS
 62
               4
 10
-255.50836865165923
 20
-82.893547104745267
  0
VERTEX
  8
0
  6
CONTINUOUS
 62
               4
 10
-243.50836865165923
 20
-82.893547104745267
  0
VERTEX
  8
0
  6
CONTINUOUS
 62
               4
 10
-243.50836865165923
 20
-83.693547104745448
  0
VERTEX
  8
0
  6
CONTINUOUS
 62
               4
 10
-255.50836865165923
 20
-83.693547104745448
  0
SEQEND
  8
0
  6
CONTINUOUS
 62
               4
  0
POLYLINE
  8
__-2
  6
STYLE_14
 62
               4
 66
               1
 70
               1
  0
VERTEX
  8
__-2
  6
STYLE_14
 62
               4
 10
-252.00836865165923
 20
-80.393547104745267
  0
VERTEX
  8
__-2
  6
STYLE_14
 62
               4
 10
-247.00836865165923
 20
-80.393547104745267
  0
VERTEX
  8
__-2
  6
STYLE_14
 62
               4
 10
-247.00836865165923
 20
-82.893547104745267
  0
VERTEX
  8
__-2
  6
STYLE_14
 62
               4
 10
-252.00836865165923
 20
-82.893547104745267
  0
SEQEND
  8
__-2
  6
STYLE_14
 62
               4
  0
POLYLINE
  8
__-2
  6
CONTINUOUS
 62
               4
 66
               1
 70
               1
  0
VERTEX
  8
__-2
  6
CONTINUOUS
 62
               4
 10
-253.50836865165923
 20
-80.393547104745267
  0
VERTEX
  8
__-2
  6
CONTINUOUS
 62
               4
 10
-245.50836865165923
 20
-80.393547104745267
  0
VERTEX
  8
__-2
  6
CONTINUOUS
 62
               4
 10
-245.50836865165923
 20
-82.893547104745267
  0
VERTEX
  8
__-2
  6
CONTINUOUS
 62
               4
 10
-253.50836865165923
 20
-82.893547104745267
  0
SEQEND
  8
__-2
  6
CONTINUOUS
 62
               4
  0
POLYLINE
  8
___
  6
CONTINUOUS
 62
               4
 66
               1
 70
               1
  0
VERTEX
  8
___
  6
CONTINUOUS
 62
               4
 10
-261.50836865165923
 20
-85.693547104745448
  0
VERTEX
  8
___
  6
CONTINUOUS
 62
               4
 10
-237.50836865165923
 20
-85.693547104745448
  0
VERTEX
  8
___
  6
CONTINUOUS
 62
               4
 10
-237.50836865165923
 20
-91.693547104745448
  0
VERTEX
  8
___
  6
CONTINUOUS
 62
               4
 10
-261.50836865165923
 20
-91.693547104745448
  0
SEQEND
  8
___
  6
CONTINUOUS
 62
               4
  0
POLYLINE
  8
___
  6
CONTINUOUS
 62
               4
 66
               1
 70
               1
  0
VERTEX
  8
___
  6
CONTINUOUS
 62
               4
 10
-263.50836865165923
 20
-85.693547104745448
  0
VERTEX
  8
___
  6
CONTINUOUS
 62
               4
 10
-235.50836865165923
 20
-85.693547104745448
  0
VERTEX
  8
___
  6
CONTINUOUS
 62
               4
 10
-235.50836865165923
 20
-91.693547104745448
  0
VERTEX
  8
___
  6
CONTINUOUS
 62
               4
 10
-263.50836865165923
 20
-91.693547104745448
  0
SEQEND
  8
___
  6
CONTINUOUS
 62
               4
  0
TEXT
  8
___
 62
               4
 10
-256.22507419715896
 20
-89.891907819738663
 40
2.4694444444444446
  1
12
 50
90.0
 11
-259.08962975271447
 21
-89.891907819738663
  0
POLYLINE
  8
0
  6
CONTINUOUS
 62
               4
 66
               1
 70
               1
  0
VERTEX
  8
0
  6
CONTINUOUS
 62
               4
 10
-191.78155533720167
 20
-122.89354710474618
  0
VERTEX
  8
0
  6
CONTINUOUS
 62
               4
 10
-188.78155533720167
 20
-122.89354710474618
  0
VERTEX
  8
0
  6
CONTINUOUS
 62
               4
 10
-188.78155533720167
 20
-123.39354710474618
  0
VERTEX
  8
0
  6
CONTINUOUS
 62
               4
 10
-191.78155533720167
 20
-123.39354710474618
  0
SEQEND
  8
0
  6
CONTINUOUS
 62
               4
  0
POLYLINE
  8
0
  6
CONTINUOUS
 62
               4
 66
               1
 70
               1
  0
VERTEX
  8
0
  6
CONTINUOUS
 62
               4
 10
-194.28155533720167
 20
-122.89354710474618
  0
VERTEX
  8
0
  6
CONTINUOUS
 62
               4
 10
-186.28155533720167
 20
-122.89354710474618
  0
VERTEX
  8
0
  6
CONTINUOUS
 62
               4
 10
-186.28155533720167
 20
-123.39354710474618
  0
VERTEX
  8
0
  6
CONTINUOUS
 62
               4
 10
-194.28155533720167
 20
-123.39354710474618
  0
SEQEND
  8
0
  6
CONTINUOUS
 62
               4
  0
LINE
  8
__
  6
CONTINUOUS
 62
               4
 10
-191.5650489862561
 20
-123.39354710474618
 11
-191.5650489862561
 21
-122.39354710474618
  0
LINE
  8
__
  6
CONTINUOUS
 62
               4
 10
-188.99806168814814
 20
-122.39354710474618
 11
-188.99806168814814
 21
-123.39354710474618
  0
POLYLINE
  8
__
  6
CONTINUOUS
 62
               4
 66
               1
 70
               1
  0
VERTEX
  8
__
  6
CONTINUOUS
 62
               4
 10
-191.78155533720167
 20
-122.39354710474618
  0
VERTEX
  8
__
  6
CONTINUOUS
 62
               4
 10
-191.78155533720167
 20
-113.39354710474618
  0
VERTEX
  8
__
  6
CONTINUOUS
 62
               4
 10
-188.78155533720167
 20
-113.39354710474618
  0
VERTEX
  8
__
  6
CONTINUOUS
 62
               4
 10
-188.78155533720167
 20
-122.39354710474618
  0
SEQEND
  8
__
  6
CONTINUOUS
 62
               4
  0
LINE
  8
__
  6
CONTINUOUS
 62
               4
 10
-189.21456803909462
 20
-113.39354710474618
 11
-189.21456803909462
 21
-122.39354710474618
  0
LINE
  8
__
  6
CONTINUOUS
 62
               4
 10
-191.34854263530963
 20
-113.39354710474618
 11
-191.34854263530963
 21
-122.39354710474618
  0
POLYLINE
  8
__
  6
CONTINUOUS
 62
               4
 66
               1
 70
             129
  0
VERTEX
  8
__
  6
CONTINUOUS
 62
               4
 10
-193.08155533720185
 20
-123.39354710474618
  0
VERTEX
  8
__
  6
CONTINUOUS
 62
               4
 10
-193.08155533720185
 20
-123.81747195441288
 42
0.3664979807723187
 70
               2
  0
VERTEX
  8
__
  6
CONTINUOUS
 62
               4
 10
-192.07938247818004
 20
-125.00105313975354
  0
VERTEX
  8
__
  6
CONTINUOUS
 62
               4
 10
-191.33155533720168
 20
-125.12604710474551
  0
VERTEX
  8
__
  6
CONTINUOUS
 62
               4
 10
-190.98155533720166
 20
-125.16354710474548
  0
VERTEX
  8
__
  6
CONTINUOUS
 62
               4
 10
-190.63155533720163
 20
-125.18604710474546
  0
VERTEX
  8
__
  6
CONTINUOUS
 62
               4
 10
-190.28155533720167
 20
-125.19354710474545
  0
VERTEX
  8
__
  6
CONTINUOUS
 62
               4
 10
-189.9315553372017
 20
-125.18604710474546
  0
VERTEX
  8
__
  6
CONTINUOUS
 62
               4
 10
-189.58155533720179
 20
-125.16354710474548
  0
VERTEX
  8
__
  6
CONTINUOUS
 62
               4
 10
-189.23155533720188
 20
-125.12604710474551
  0
VERTEX
  8
__
  6
CONTINUOUS
 62
               4
 10
-188.88155533720197
 20
-125.07354710474556
  0
VERTEX
  8
__
  6
CONTINUOUS
 62
               4
 10
-188.88155533720197
 20
-125.07354710474556
  0
VERTEX
  8
__
  6
CONTINUOUS
 62
               4
 10
-188.47879875906949
 20
-125.00450311992289
 42
0.3653169476582595
 70
               2
 50
-334.22538049318513
  0
VERTEX
  8
__
  6
CONTINUOUS
 62
               4
 10
-187.48155533720239
 20
-123.82175641414695
  0
VERTEX
  8
__
  6
CONTINUOUS
 62
               4
 10
-187.48155533720239
 20
-123.39354710474618
  0
VERTEX
  8
__
  6
CONTINUOUS
 62
               4
 10
-193.08155533720185
 20
-123.39354710474618
  0
SEQEND
  8
__
  6
CONTINUOUS
 62
               4
  0
TEXT
  8
0
 62
               4
 10
-192.58711089275783
 20
-124.93799154919004
 40
1.0858940972222222
  1
10
  7
_______
 11
-192.58711089275783
 21
-123.65454189641227
  0
POLYLINE
  8
___
  6
STYLE_11
 62
               4
 66
               1
 70
               1
  0
VERTEX
  8
___
  6
STYLE_11
 62
               4
 10
-191.53155533720167
 20
-85.693547104745448
  0
VERTEX
  8
___
  6
STYLE_11
 62
               4
 10
-189.03155533720167
 20
-85.693547104745448
  0
VERTEX
  8
___
  6
STYLE_11
 62
               4
 10
-189.03155533720167
 20
-120.89354710474618
  0
VERTEX
  8
___
  6
STYLE_11
 62
               4
 10
-191.53155533720167
 20
-120.89354710474618
  0
SEQEND
  8
___
  6
STYLE_11
 62
               4
  0
POLYLINE
  8
___
  6
CONTINUOUS
 62
               4
 66
               1
 70
               1
  0
VERTEX
  8
___
  6
CONTINUOUS
 62
               4
 10
-192.78155533720167
 20
-85.693547104745448
  0
VERTEX
  8
___
  6
CONTINUOUS
 62
               4
 10
-187.78155533720167
 20
-85.693547104745448
  0
VERTEX
  8
___
  6
CONTINUOUS
 62
               4
 10
-187.78155533720167
 20
-120.89354710474618
  0
VERTEX
  8
___
  6
CONTINUOUS
 62
               4
 10
-192.78155533720167
 20
-120.89354710474618
  0
SEQEND
  8
___
  6
CONTINUOUS
 62
               4
  0
TEXT
  8
___
 62
               4
 10
-191.14822200386834
 20
-107.05333783718173
 40
3.2576822916666663
  1
5
  7
_______
 11
-191.14822200386834
 21
-103.20298887884839
  0
POLYLINE
  8
__
  6
CONTINUOUS
 62
               4
 66
               1
 70
               1
  0
VERTEX
  8
__
  6
CONTINUOUS
 62
               4
 10
-191.34854263530963
 20
-85.843547104745539
  0
VERTEX
  8
__
  6
CONTINUOUS
 62
               4
 10
-189.21456803909462
 20
-85.843547104745539
  0
VERTEX
  8
__
  6
CONTINUOUS
 62
               4
 10
-189.21456803909462
 20
-93.693547104745448
  0
VERTEX
  8
__
  6
CONTINUOUS
 62
               4
 10
-191.34854263530963
 20
-93.693547104745448
  0
SEQEND
  8
__
  6
CONTINUOUS
 62
               4
  0
POLYLINE
  8
__
  6
CONTINUOUS
 62
               4
 66
               1
 70
               1
  0
VERTEX
  8
__
  6
CONTINUOUS
 62
               4
 10
-191.78155533720258
 20
-85.843547104745539
  0
VERTEX
  8
__
  6
CONTINUOUS
 62
               4
 10
-188.78155533720258
 20
-85.843547104745539
  0
VERTEX
  8
__
  6
CONTINUOUS
 62
               4
 10
-188.78155533720258
 20
-93.693547104745448
  0
VERTEX
  8
__
  6
CONTINUOUS
 62
               4
 10
-191.78155533720258
 20
-93.693547104745448
  0
SEQEND
  8
__
  6
CONTINUOUS
 62
               4
  0
POLYLINE
  8
__
  6
CONTINUOUS
 62
               4
 66
               1
 70
               1
  0
VERTEX
  8
__
  6
CONTINUOUS
 62
               4
 10
-188.78155533720258
 20
-85.343547104745539
  0
VERTEX
  8
__
  6
CONTINUOUS
 62
               4
 10
-187.13155533720203
 20
-83.693547104745448
  0
VERTEX
  8
__
  6
CONTINUOUS
 62
               4
 10
-193.43155533720221
 20
-83.693547104745448
  0
VERTEX
  8
__
  6
CONTINUOUS
 62
               4
 10
-191.78155533720258
 20
-85.343547104745539
  0
SEQEND
  8
__
  6
CONTINUOUS
 62
               4
  0
POLYLINE
  8
__
  6
CONTINUOUS
 62
               4
 66
               1
 70
               1
  0
VERTEX
  8
__
  6
CONTINUOUS
 62
               4
 10
-191.5650489862561
 20
-85.343547104745539
  0
VERTEX
  8
__
  6
CONTINUOUS
 62
               4
 10
-188.99806168814814
 20
-85.343547104745539
  0
VERTEX
  8
__
  6
CONTINUOUS
 62
               4
 10
-188.99806168814814
 20
-85.843547104745539
  0
VERTEX
  8
__
  6
CONTINUOUS
 62
               4
 10
-191.5650489862561
 20
-85.843547104745539
  0
SEQEND
  8
__
  6
CONTINUOUS
 62
               4
  0
TEXT
  8
__
 62
               4
 10
-190.58988867053557
 20
-85.343547104745156
 40
1.0858940972222222
  1
10
  7
_______
 11
-190.58988867053557
 21
-84.06009745196738
  0
CIRCLE
  8
___
  6
CONTINUOUS
 62
               4
 10
-217.98454247548409
 20
-180.22499901322271
 40
7.0
  0
LINE
  8
___
  6
CONTINUOUS
 62
               4
 10
-217.98454247548409
 20
-180.22499901322271
 11
-224.19361830773153
 21
-183.45723930586792
  0
LINE
  8
___
  6
CONTINUOUS
 62
               4
 10
-217.98454247548409
 20
-180.22499901322271
 11
-211.77546664323665
 21
-183.45723930586792
  0
LINE
  8
___
  6
CONTINUOUS
 62
               4
 10
-217.98454247548409
 20
-180.22499901322271
 11
-217.98454247548409
 21
-173.22499901322271
  0
LINE
  8
___
  6
CONTINUOUS
 62
               4
 10
-217.98454247548409
 20
-180.22499901322271
 11
-210.98454247548409
 21
-180.22499901322271
  0
LINE
  8
___
  6
CONTINUOUS
 62
               4
 10
-217.98454247548409
 20
-180.22499901322271
 11
-217.98454247548409
 21
-187.22499901322271
  0
LINE
  8
___
  6
CONTINUOUS
 62
               4
 10
-214.35312966837512
 20
-186.20938210790837
 11
-217.98454247548409
 21
-180.22499901322271
  0
ARC
  8
__-1
  6
CONTINUOUS
 62
               4
 10
-215.78018039857591
 20
-175.52776226384549
 40
53.333649612923807
 50
158.1976340174804
 51
255.87528446684195
  0
POLYLINE
  8
__-1
  6
CONTINUOUS
 62
               4
 66
               1
 70
             128
  0
VERTEX
  8
__-1
  6
CONTINUOUS
 62
               4
 10
-226.84310324855335
 20
-219.49083227997107
 42
-0.0492240480586617
 70
               2
 50
227.68832437136024
  0
VERTEX
  8
__-1
  6
CONTINUOUS
 62
               4
 10
-235.2231868875034
 20
-216.48028704436229
  0
VERTEX
  8
__-1
  6
CONTINUOUS
 62
               4
 10
-235.2231868875034
 20
-216.48028704436229
 42
-0.2857222970110374
 70
               2
 50
120.6810552378324
  0
VERTEX
  8
__-1
  6
CONTINUOUS
 62
               4
 10
-243.78833458288602
 20
-203.14452584173978
  0
VERTEX
  8
__-1
  6
CONTINUOUS
 62
               4
 10
-243.78833458288602
 20
-203.14452584173978
 42
-0.2857222970110697
 70
               2
 50
0.819796262966203
  0
VERTEX
  8
__-1
  6
CONTINUOUS
 62
               4
 10
-235.60823500735034
 20
-189.56917123011272
  0
VERTEX
  8
__-1
  6
CONTINUOUS
 62
               4
 10
-231.88468431153808
 20
-187.66894185838737
  0
VERTEX
  8
__-1
  6
CONTINUOUS
 62
               4
 10
-231.88468431153808
 20
-187.66894185838737
 42
-0.2681196374812122
 70
               2
 50
-112.27262500382805
  0
VERTEX
  8
__-1
  6
CONTINUOUS
 62
               4
 10
-229.88629189261985
 20
-187.77303535731426
  0
VERTEX
  8
__-1
  6
CONTINUOUS
 62
               4
 10
-229.88629189261985
 20
-187.77303535731426
 42
0.2025404588615393
 70
               2
 50
88.227812016776454
  0
VERTEX
  8
__-1
  6
CONTINUOUS
 62
               4
 10
-222.99071220511735
 20
-189.00136733121053
  0
VERTEX
  8
__-1
  6
CONTINUOUS
 62
               4
 10
-222.99071220511735
 20
-189.00136733121053
 42
0.2350973151056438
 70
               2
 50
-252.2024424773233
  0
VERTEX
  8
__-1
  6
CONTINUOUS
 62
               4
 10
-216.78070808800305
 20
-183.92595852970999
  0
VERTEX
  8
__-1
  6
CONTINUOUS
 62
               4
 10
-214.21265422438057
 20
-178.23341082648085
  0
VERTEX
  8
__-1
  6
CONTINUOUS
 62
               4
 10
-214.21265422438057
 20
-178.23341082648085
 42
0.2277350772926164
 70
               2
 50
-25.847591556319454
  0
VERTEX
  8
__-1
  6
CONTINUOUS
 62
               4
 10
-214.29593302381829
 20
-174.77031038878476
  0
VERTEX
  8
__-1
  6
CONTINUOUS
 62
               4
 10
-214.29593302381829
 20
-174.77031038878476
 42
0.2277350772925145
 70
               2
 50
29.239597363104338
  0
VERTEX
  8
__-1
  6
CONTINUOUS
 62
               4
 10
-217.05136418617451
 20
-172.67088210720021
  0
VERTEX
  8
__-1
  6
CONTINUOUS
 62
               4
 10
-223.1678055020376
 20
-171.41026891132969
  0
VERTEX
  8
__-1
  6
CONTINUOUS
 62
               4
 10
-223.1678055020376
 20
-171.41026891132969
 42
0.2350973151054943
 70
               2
 50
277.99667192639771
  0
VERTEX
  8
__-1
  6
CONTINUOUS
 62
               4
 10
-230.92144283747086
 20
-173.46088679565355
  0
VERTEX
  8
__-1
  6
CONTINUOUS
 62
               4
 10
-230.92144283747086
 20
-173.46088679565355
 42
0.202540458863033
 70
               2
 50
-65.279027537963628
  0
VERTEX
  8
__-1
  6
CONTINUOUS
 62
               4
 10
-233.97280035047254
 20
-179.7654118367077
  0
VERTEX
  8
__-1
  6
CONTINUOUS
 62
               4
 10
-233.97280035047254
 20
-179.7654118367077
 42
-0.2681196374583367
 70
               2
 50
-2.9296450865538337
  0
VERTEX
  8
__-1
  6
CONTINUOUS
 62
               4
 10
-235.06107621858894
 20
-181.44471626165023
  0
VERTEX
  8
__-1
  6
CONTINUOUS
 62
               4
 10
-238.78461212997365
 20
-183.34493808847947
  0
VERTEX
  8
__-1
  6
CONTINUOUS
 62
               4
 10
-238.78461212997365
 20
-183.34493808847947
 42
-0.2857225141362952
 70
               2
 50
-112.2726250038516
  0
VERTEX
  8
__-1
  6
CONTINUOUS
 62
               4
 10
-254.57718488107014
 20
-182.00347406984338
  0
VERTEX
  8
__-1
  6
CONTINUOUS
 62
               4
 10
-254.57718488107014
 20
-182.00347406984338
 42
-0.2857225141362758
 70
               2
 50
76.737103901714775
  0
VERTEX
  8
__-1
  6
CONTINUOUS
 62
               4
 10
-260.35035390121368
 20
-167.24287112562615
  0
VERTEX
  8
__-1
  6
CONTINUOUS
 62
               4
 10
-260.35035390121368
 20
-167.24287112562615
 42
-0.0492238231156034
 70
               2
 50
-10.650380257491202
  0
VERTEX
  8
__-1
  6
CONTINUOUS
 62
               4
 10
-257.87113630292799
 20
-158.6905648032548
  0
VERTEX
  8
__-1
  6
CONTINUOUS
 62
               4
 10
-257.87113630292799
 20
-158.6905648032548
 42
0.414213562373035
 70
               2
 50
-22.919421348192671
  0
VERTEX
  8
__-1
  6
CONTINUOUS
 62
               4
 10
-259.820861403403
 20
-154.14099646885643
  0
VERTEX
  8
__-1
  6
CONTINUOUS
 62
               4
 10
-259.820861403403
 20
-154.14099646885643
 42
0.4142135623729652
 70
               2
 50
143.23251447498174
  0
VERTEX
  8
__-1
  6
CONTINUOUS
 62
               4
 10
-264.37042973780183
 20
-156.09072156933189
  0
VERTEX
  8
__-1
  6
CONTINUOUS
 62
               4
 10
-264.37042973780183
 20
-156.09072156933189
 42
0.2163849855005815
 70
               2
 50
-22.919421348195673
  0
VERTEX
  8
__-1
  6
CONTINUOUS
 62
               4
 10
-262.39467555634758
 20
-199.31640919876781
  0
VERTEX
  8
__-1
  6
CONTINUOUS
 62
               4
 10
-262.39467555634758
 20
-199.31640919876781
 42
0.2163849855005814
 70
               2
 50
29.239597363112573
  0
VERTEX
  8
__-1
  6
CONTINUOUS
 62
               4
 10
-228.55133677069546
 20
-226.27920014226538
  0
VERTEX
  8
__-1
  6
CONTINUOUS
 62
               4
 10
-228.55133677069546
 20
-226.27920014226538
 42
0.4137161766924344
 70
               2
 50
243.34818934925093
  0
VERTEX
  8
__-1
  6
CONTINUOUS
 62
               4
 10
-224.34372716948758
 20
-223.68027561193003
  0
VERTEX
  8
__-1
  6
CONTINUOUS
 62
               4
 10
-224.34372716948758
 20
-223.68027561193003
 42
0.4137161766924201
 70
               2
 50
-13.592913052551872
  0
VERTEX
  8
__-1
  6
CONTINUOUS
 62
               4
 10
-226.93550141580738
 20
-219.46825786188901
  0
SEQEND
  8
__-1
  6
CONTINUOUS
 62
               4
  0
CIRCLE
  8
___
  6
CONTINUOUS
 62
               4
 10
-224.98454247549137
 20
-180.2249990132259
 40
4.9999999999999556
  0
CIRCLE
  8
___
  6
CONTINUOUS
 62
               4
 10
-232.55564083749061
 20
-184.08873678908367
 40
1.4999999999997866
  0
CIRCLE
  8
___
  6
CONTINUOUS
 62
               4
 10
-227.74920322178889
 20
-222.87235676913087
 40
1.5000000000001916
  0
CIRCLE
  8
___
  6
CONTINUOUS
 62
               4
 10
-261.120783020364
 20
-157.3906431862938
 40
1.4999999999997866
  0
POLYLINE
  8
__-1
  6
CONTINUOUS
 62
               4
 66
               1
 70
             129
  0
VERTEX
  8
__-1
  6
CONTINUOUS
 62
               4
 10
-240.4296790991549
 20
-189.19985894816273
  0
VERTEX
  8
__-1
  6
CONTINUOUS
 62
               4
 10
-240.4296790991549
 20
-189.19985894816273
 42
0.2001762407954497
 70
               2
 50
-67.58490719859428
  0
VERTEX
  8
__-1
  6
CONTINUOUS
 62
               4
 10
-246.73605766268258
 20
-201.53912053200338
  0
VERTEX
  8
__-1
  6
CONTINUOUS
 62
               4
 10
-246.73605766268258
 20
-201.53912053200338
 42
0.2001762407954659
 70
               2
 50
-4.4403472600762948
  0
VERTEX
  8
__-1
  6
CONTINUOUS
 62
               4
 10
-242.40611429145076
 20
-214.70268302180421
  0
VERTEX
  8
__-1
  6
CONTINUOUS
 62
               4
 10
-242.40611429145076
 20
-214.70268302180421
 42
-0.3772592542585681
 70
               2
 50
49.538601325646511
  0
VERTEX
  8
__-1
  6
CONTINUOUS
 62
               4
 10
-242.41745360828293
 20
-216.02365737130867
  0
VERTEX
  8
__-1
  6
CONTINUOUS
 62
               4
 10
-242.41745360828293
 20
-216.02365737130867
 42
-0.3772592542587099
 70
               2
 50
-51.28363155391348
  0
VERTEX
  8
__-1
  6
CONTINUOUS
 62
               4
 10
-243.7291007470759
 20
-216.18076750926275
  0
VERTEX
  8
__-1
  6
CONTINUOUS
 62
               4
 10
-243.7291007470759
 20
-216.18076750926275
 42
-0.2535501402019916
 70
               2
 50
83.339377551680926
  0
VERTEX
  8
__-1
  6
CONTINUOUS
 62
               4
 10
-265.09870938840425
 20
-174.30641775460163
  0
VERTEX
  8
__-1
  6
CONTINUOUS
 62
               4
 10
-265.09870938840425
 20
-174.30641775460163
 42
-0.3772592671784556
 70
               2
 50
-1.4188964502248236
  0
VERTEX
  8
__-1
  6
CONTINUOUS
 62
               4
 10
-264.20187093621928
 20
-173.33647822422836
  0
VERTEX
  8
__-1
  6
CONTINUOUS
 62
               4
 10
-264.20187093621928
 20
-173.33647822422836
 42
-0.3772592671784505
 70
               2
 50
-554.09921698494054
  0
VERTEX
  8
__-1
  6
CONTINUOUS
 62
               4
 10
-263.12553993950144
 20
-174.10238519468976
  0
VERTEX
  8
__-1
  6
CONTINUOUS
 62
               4
 10
-263.12553993950144
 20
-174.10238519468976
 42
0.2001762128203078
 70
               2
 50
13.465834653416099
  0
VERTEX
  8
__-1
  6
CONTINUOUS
 62
               4
 10
-255.00677686802112
 20
-185.33241627491452
  0
VERTEX
  8
__-1
  6
CONTINUOUS
 62
               4
 10
-255.00677686802112
 20
-185.33241627491452
 42
0.2001762128203402
 70
               2
 50
93.514218181083265
  0
VERTEX
  8
__-1
  6
CONTINUOUS
 62
               4
 10
-241.31457911251357
 20
-187.46587180473352
  0
VERTEX
  8
__-1
  6
CONTINUOUS
 62
               4
 10
-241.31457911251357
 20
-187.46587180473352
 42
-0.3479750817194686
 70
               2
 50
-233.56702295487781
  0
VERTEX
  8
__-1
  6
CONTINUOUS
 62
               4
 10
-240.18561737736593
 20
-187.98252008121699
  0
VERTEX
  8
__-1
  6
CONTINUOUS
 62
               4
 10
-240.18561737736593
 20
-187.98252008121699
 42
-0.3479750817191714
 70
               2
 50
29.2395686142135
  0
VERTEX
  8
__-1
  6
CONTINUOUS
 62
               4
 10
-240.4296790991549
 20
-189.19985894816273
  0
SEQEND
  8
__-1
  6
CONTINUOUS
 62
               4
  0
CIRCLE
  8
__-1
  6
CONTINUOUS
 62
               4
 10
-217.85880284104235
 20
-176.5885399302656
 40
1.5499999999995608
  0
ARC
  8
__-1
  6
CONTINUOUS
 62
               4
 10
-219.7886779704678
 20
-174.81468363343583
 40
53.33364961292375
 50
279.58962726206158
 51
17.267277711423276
  0
POLYLINE
  8
__-1
  6
CONTINUOUS
 62
               4
 66
               1
 70
             128
  0
VERTEX
  8
__-1
  6
CONTINUOUS
 62
               4
 10
-176.49819427387604
 20
-161.35831679307194
 42
-0.0492240480586747
 70
               2
 50
17.809757750366717
  0
VERTEX
  8
__-1
  6
CONTINUOUS
 62
               4
 10
-174.70296204446288
 20
-170.07991788770596
  0
VERTEX
  8
__-1
  6
CONTINUOUS
 62
               4
 10
-174.70296204446288
 20
-170.07991788770596
 42
-0.2857222970110709
 70
               2
 50
6.0169887178086841
  0
VERTEX
  8
__-1
  6
CONTINUOUS
 62
               4
 10
-181.62517972826129
 20
-184.33779936551355
  0
VERTEX
  8
__-1
  6
CONTINUOUS
 62
               4
 10
-181.62517972826129
 20
-184.33779936551355
 42
-0.2857222970110734
 70
               2
 50
-90.942845630266447
  0
VERTEX
  8
__-1
  6
CONTINUOUS
 62
               4
 10
-197.47435767701256
 20
-184.42634452880657
  0
VERTEX
  8
__-1
  6
CONTINUOUS
 62
               4
 10
-201.0359999260246
 20
-182.23764492870168
  0
VERTEX
  8
__-1
  6
CONTINUOUS
 62
               4
 10
-201.0359999260246
 20
-182.23764492870168
 42
-0.2681196374813722
 70
               2
 50
93.236673042941078
  0
VERTEX
  8
__-1
  6
CONTINUOUS
 62
               4
 10
-201.98808658145856
 20
-180.47754870489644
  0
VERTEX
  8
__-1
  6
CONTINUOUS
 62
               4
 10
-201.98808658145856
 20
-180.47754870489644
 42
0.2025404588615289
 70
               2
 50
-1.6084146491340265
  0
VERTEX
  8
__-1
  6
CONTINUOUS
 62
               4
 10
-204.53139432623186
 20
-173.95149289911478
  0
VERTEX
  8
__-1
  6
CONTINUOUS
 62
               4
 10
-204.53139432623186
 20
-173.95149289911478
 42
0.2350973151056328
 70
               2
 50
55.700785844972252
  0
VERTEX
  8
__-1
  6
CONTINUOUS
 62
               4
 10
-212.0986142490957
 20
-171.2942183036057
  0
VERTEX
  8
__-1
  6
CONTINUOUS
 62
               4
 10
-218.29558176639523
 20
-172.06726008096666
  0
VERTEX
  8
__-1
  6
CONTINUOUS
 62
               4
 10
-218.29558176639523
 20
-172.06726008096666
 42
0.2277350772923668
 70
               2
 50
-459.30258223885221
  0
VERTEX
  8
__-1
  6
CONTINUOUS
 62
               4
 10
-221.20838689611003
 20
-173.94224442125051
  0
VERTEX
  8
__-1
  6
CONTINUOUS
 62
               4
 10
-221.20838689611003
 20
-173.94224442125051
 42
0.227735077292486
 70
               2
 50
-35.209389641180998
  0
VERTEX
  8
__-1
  6
CONTINUOUS
 62
               4
 10
-221.56523092066902
 20
-177.38791740952729
  0
VERTEX
  8
__-1
  6
CONTINUOUS
 62
               4
 10
-219.45532484621265
 20
-183.2656972928653
  0
VERTEX
  8
__-1
  6
CONTINUOUS
 62
               4
 10
-219.45532484621265
 20
-183.2656972928653
 42
0.2350973151055118
 70
               2
 50
20.56707049852319
  0
VERTEX
  8
__-1
  6
CONTINUOUS
 62
               4
 10
-213.66607418217166
 20
-188.81623802200465
  0
VERTEX
  8
__-1
  6
CONTINUOUS
 62
               4
 10
-213.66607418217166
 20
-188.81623802200465
 42
0.2025404588630103
 70
               2
 50
183.56737485687157
  0
VERTEX
  8
__-1
  6
CONTINUOUS
 62
               4
 10
-206.69496016236474
 20
-188.13698255585678
  0
VERTEX
  8
__-1
  6
CONTINUOUS
 62
               4
 10
-206.69496016236474
 20
-188.13698255585678
 42
-0.2681196374585435
 70
               2
 50
-105.68004795148836
  0
VERTEX
  8
__-1
  6
CONTINUOUS
 62
               4
 10
-204.69459388302323
 20
-188.19122705075824
  0
VERTEX
  8
__-1
  6
CONTINUOUS
 62
               4
 10
-201.13296577557787
 20
-190.37991796058986
  0
VERTEX
  8
__-1
  6
CONTINUOUS
 62
               4
 10
-201.13296577557787
 20
-190.37991796058986
 42
-0.2857225141363056
 70
               2
 50
93.236673042826709
  0
VERTEX
  8
__-1
  6
CONTINUOUS
 62
               4
 10
-194.05187240123826
 20
-204.5595863782878
  0
VERTEX
  8
__-1
  6
CONTINUOUS
 62
               4
 10
-194.05187240123826
 20
-204.5595863782878
 42
-0.2857225141363134
 70
               2
 50
-5.3705205373973453
  0
VERTEX
  8
__-1
  6
CONTINUOUS
 62
               4
 10
-203.64468336130005
 20
-217.17635528702522
  0
VERTEX
  8
__-1
  6
CONTINUOUS
 62
               4
 10
-203.64468336130005
 20
-217.17635528702522
 42
-0.0492238231157
 70
               2
 50
-150.34352139159861
  0
VERTEX
  8
__-1
  6
CONTINUOUS
 62
               4
 10
-212.23653436457164
 20
-219.51485045890604
  0
VERTEX
  8
__-1
  6
CONTINUOUS
 62
               4
 10
-212.23653436457164
 20
-219.51485045890604
 42
0.4142135623729719
 70
               2
 50
-339.1263509112589
  0
VERTEX
  8
__-1
  6
CONTINUOUS
 62
               4
 10
-215.10456026517306
 20
-223.54900804510271
  0
VERTEX
  8
__-1
  6
CONTINUOUS
 62
               4
 10
-215.10456026517306
 20
-223.54900804510271
 42
0.4142135623728319
 70
               2
 50
9.6801865770478912
  0
VERTEX
  8
__-1
  6
CONTINUOUS
 62
               4
 10
-211.0704026789773
 20
-226.41703394570413
  0
VERTEX
  8
__-1
  6
CONTINUOUS
 62
               4
 10
-211.0704026789773
 20
-226.41703394570413
 42
0.2163849855005932
 70
               2
 50
-339.12635091192061
  0
VERTEX
  8
__-1
  6
CONTINUOUS
 62
               4
 10
-175.20108700331468
 20
-202.21464008511975
  0
VERTEX
  8
__-1
  6
CONTINUOUS
 62
               4
 10
-175.20108700331468
 20
-202.21464008511975
 42
0.216384985500601
 70
               2
 50
-35.209389641173473
  0
VERTEX
  8
__-1
  6
CONTINUOUS
 62
               4
 10
-169.8136809275303
 20
-159.28050993907254
  0
VERTEX
  8
__-1
  6
CONTINUOUS
 62
               4
 10
-169.8136809275303
 20
-159.28050993907254
 42
0.4137161766923596
 70
               2
 50
18.774901017993646
  0
VERTEX
  8
__-1
  6
CONTINUOUS
 62
               4
 10
-174.22388746272475
 20
-157.04254979923917
  0
VERTEX
  8
__-1
  6
CONTINUOUS
 62
               4
 10
-174.22388746272475
 20
-157.04254979923917
 42
0.4137161766923401
 70
               2
 50
-175.85964172942221
  0
VERTEX
  8
__-1
  6
CONTINUOUS
 62
               4
 10
-176.46933501634987
 20
-161.44894884545283
  0
SEQEND
  8
__-1
  6
CONTINUOUS
 62
               4
  0
CIRCLE
  8
___
  6
CONTINUOUS
 62
               4
 10
-210.98454247548864
 20
-180.22499901322135
 40
4.9999999999997833
  0
CIRCLE
  8
___
  6
CONTINUOUS
 62
               4
 10
-203.74265267716066
 20
-184.67528351609599
 40
1.4999999999998754
  0
CIRCLE
  8
___
  6
CONTINUOUS
 62
               4
 10
-173.13966644563709
 20
-160.3703816437669
 40
1.4999999999998754
  0
CIRCLE
  8
___
  6
CONTINUOUS
 62
               4
 10
-211.65346852177402
 20
-222.96594220230509
 40
1.4999999999998754
  0
POLYLINE
  8
__-1
  6
CONTINUOUS
 62
               4
 66
               1
 70
             129
  0
VERTEX
  8
__-1
  6
CONTINUOUS
 62
               4
 10
-195.27816766499575
 20
-188.73441418041602
  0
VERTEX
  8
__-1
  6
CONTINUOUS
 62
               4
 10
-195.27816766499575
 20
-188.73441418041602
 42
0.2001762407954601
 70
               2
 50
173.06339855401552
  0
VERTEX
  8
__-1
  6
CONTINUOUS
 62
               4
 10
-181.46015108278982
 20
-187.69028547433845
  0
VERTEX
  8
__-1
  6
CONTINUOUS
 62
               4
 10
-181.46015108278982
 20
-187.69028547433845
 42
0.2001762407954695
 70
               2
 50
-112.64118802090172
  0
VERTEX
  8
__-1
  6
CONTINUOUS
 62
               4
 10
-172.47884922962123
 20
-177.13737099334185
  0
VERTEX
  8
__-1
  6
CONTINUOUS
 62
               4
 10
-172.47884922962123
 20
-177.13737099334185
 42
-0.3772592542583207
 70
               2
 50
-18.352574076543878
  0
VERTEX
  8
__-1
  6
CONTINUOUS
 62
               4
 10
-171.34532781311202
 20
-176.45896771322805
  0
VERTEX
  8
__-1
  6
CONTINUOUS
 62
               4
 10
-171.34532781311202
 20
-176.45896771322805
 42
-0.3772592542584651
 70
               2
 50
310.9963174502854
  0
VERTEX
  8
__-1
  6
CONTINUOUS
 62
               4
 10
-170.52799055751632
 20
-177.4967835074649
  0
VERTEX
  8
__-1
  6
CONTINUOUS
 62
               4
 10
-170.52799055751632
 20
-177.4967835074649
 42
-0.2535501402019945
 70
               2
 50
-3.1195870598859932
  0
VERTEX
  8
__-1
  6
CONTINUOUS
 62
               4
 10
-195.14170073815069
 20
-217.55033031674247
  0
VERTEX
  8
__-1
  6
CONTINUOUS
 62
               4
 10
-195.14170073815069
 20
-217.55033031674247
 42
-0.3772592671787338
 70
               2
 50
-99.345739911154709
  0
VERTEX
  8
__-1
  6
CONTINUOUS
 62
               4
 10
-196.43681850238329
 20
-217.28999999068583
  0
VERTEX
  8
__-1
  6
CONTINUOUS
 62
               4
 10
-196.43681850238329
 20
-217.28999999068583
 42
-0.3772592671785006
 70
               2
 50
43.640724964726537
  0
VERTEX
  8
__-1
  6
CONTINUOUS
 62
               4
 10
-196.34367266664333
 20
-215.9722649053283
  0
VERTEX
  8
__-1
  6
CONTINUOUS
 62
               4
 10
-196.34367266664333
 20
-215.9722649053283
 42
0.2001762128203136
 70
               2
 50
-58.06532129465117
  0
VERTEX
  8
__-1
  6
CONTINUOUS
 62
               4
 10
-190.98643846225707
 20
-203.19228237196785
  0
VERTEX
  8
__-1
  6
CONTINUOUS
 62
               4
 10
-190.98643846225707
 20
-203.19228237196785
 42
0.2001762128203955
 70
               2
 50
-0.1036383212293062
  0
VERTEX
  8
__-1
  6
CONTINUOUS
 62
               4
 10
-196.29740413173488
 20
-190.3930028793061
  0
VERTEX
  8
__-1
  6
CONTINUOUS
 62
               4
 10
-196.29740413173488
 20
-190.3930028793061
 42
-0.3479750817198057
 70
               2
 50
57.646696151797968
  0
VERTEX
  8
__-1
  6
CONTINUOUS
 62
               4
 10
-196.44444624259461
 20
-189.16017740153029
  0
VERTEX
  8
__-1
  6
CONTINUOUS
 62
               4
 10
-196.44444624259461
 20
-189.16017740153029
 42
-0.3479750817196346
 70
               2
 50
-35.209421063228255
  0
VERTEX
  8
__-1
  6
CONTINUOUS
 62
               4
 10
-195.27816766499575
 20
-188.73441418041602
  0
SEQEND
  8
__-1
  6
CONTINUOUS
 62
               4
  0
CIRCLE
  8
__-1
  6
CONTINUOUS
 62
               4
 10
-217.8004387559032
 20
-176.03649595190745
 40
1.5499999999996974
  0
ARC
  8
__-1
  6
CONTINUOUS
 62
               4
 10
-217.98454247548045
 20
-176.89134940029908
 40
53.333649612923743
 50
221.16117477531932
 51
318.83882522468065
  0
POLYLINE
  8
__-1
  6
CONTINUOUS
 62
               4
 66
               1
 70
             128
  0
VERTEX
  8
__-1
  6
CONTINUOUS
 62
               4
 10
-183.85460195247208
 20
-206.7290260377863
 42
-0.049224048058664
 70
               2
 50
-50.090123674608407
  0
VERTEX
  8
__-1
  6
CONTINUOUS
 62
               4
 10
-190.34537604891023
 20
-212.82484723270727
  0
VERTEX
  8
__-1
  6
CONTINUOUS
 62
               4
 10
-190.34537604891023
 20
-212.82484723270727
 42
-0.2857222970110795
 70
               2
 50
-74.489973944330274
  0
VERTEX
  8
__-1
  6
CONTINUOUS
 62
               4
 10
-206.11712246026593
 20
-214.39210503951153
  0
VERTEX
  8
__-1
  6
CONTINUOUS
 62
               4
 10
-206.11712246026593
 20
-214.39210503951153
 42
-0.2857222970110565
 70
               2
 50
116.3546799996292
  0
VERTEX
  8
__-1
  6
CONTINUOUS
 62
               4
 10
-214.4906030861149
 20
-200.93516987188741
  0
VERTEX
  8
__-1
  6
CONTINUOUS
 62
               4
 10
-214.4906030861149
 20
-196.75477498031887
  0
VERTEX
  8
__-1
  6
CONTINUOUS
 62
               4
 10
-214.4906030861149
 20
-196.75477498031887
 42
-0.2681196374813706
 70
               2
  0
VERTEX
  8
__-1
  6
CONTINUOUS
 62
               4
 10
-213.48950115685432
 20
-195.02208844094184
  0
VERTEX
  8
__-1
  6
CONTINUOUS
 62
               4
 10
-213.48950115685432
 20
-195.02208844094184
 42
0.2025404588614834
 70
               2
 50
-99.385141320690678
  0
VERTEX
  8
__-1
  6
CONTINUOUS
 62
               4
 10
-209.26096775465987
 20
-189.43842262614498
  0
VERTEX
  8
__-1
  6
CONTINUOUS
 62
               4
 10
-209.26096775465987
 20
-189.43842262614498
 42
0.2350973151055809
 70
               2
 50
-14.537599018027528
  0
VERTEX
  8
__-1
  6
CONTINUOUS
 62
               4
 10
-210.95891972728271
 20
-181.59999901322408
  0
VERTEX
  8
__-1
  6
CONTINUOUS
 62
               4
 10
-214.86204347628166
 20
-176.72499901322362
  0
VERTEX
  8
__-1
  6
CONTINUOUS
 62
               4
 10
-214.86204347628166
 20
-176.72499901322362
 42
0.2277350772924971
 70
               2
 50
45.873336971249415
  0
VERTEX
  8
__-1
  6
CONTINUOUS
 62
               4
 10
-217.98454247548136
 20
-175.22499901322362
  0
VERTEX
  8
__-1
  6
CONTINUOUS
 62
               4
 10
-217.98454247548136
 20
-175.22499901322362
 42
0.2277350772923999
 70
               2
 50
9.3574199307792870E+17
  0
VERTEX
  8
__-1
  6
CONTINUOUS
 62
               4
 10
-221.10704147468107
 20
-176.72499901322408
  0
VERTEX
  8
__-1
  6
CONTINUOUS
 62
               4
 10
-225.01016522367911
 20
-181.59999901322453
  0
VERTEX
  8
__-1
  6
CONTINUOUS
 62
               4
 10
-225.01016522367911
 20
-181.59999901322453
 42
0.2350973151055324
 70
               2
 50
-45.873336971261168
  0
VERTEX
  8
__-1
  6
CONTINUOUS
 62
               4
 10
-226.70811719630194
 20
-189.43842262614544
  0
VERTEX
  8
__-1
  6
CONTINUOUS
 62
               4
 10
-226.70811719630194
 20
-189.43842262614544
 42
0.2025404588630162
 70
               2
 50
14.537599018013857
  0
VERTEX
  8
__-1
  6
CONTINUOUS
 62
               4
 10
-222.47958379406475
 20
-195.0220884409664
  0
VERTEX
  8
__-1
  6
CONTINUOUS
 62
               4
 10
-222.47958379406475
 20
-195.0220884409664
 42
-0.2681196374583547
 70
               2
 50
99.385141327726288
  0
VERTEX
  8
__-1
  6
CONTINUOUS
 62
               4
 10
-221.47848186484691
 20
-196.75477498043983
  0
VERTEX
  8
__-1
  6
CONTINUOUS
 62
               4
 10
-221.47848186484691
 20
-200.93515327367186
  0
VERTEX
  8
__-1
  6
CONTINUOUS
 62
               4
 10
-221.47848186484691
 20
-200.93515327367186
 42
-0.2857225141363183
 70
               2
  0
VERTEX
  8
__-1
  6
CONTINUOUS
 62
               4
 10
-229.85197785857429
 20
-214.39210109459327
  0
VERTEX
  8
__-1
  6
CONTINUOUS
 62
               4
 10
-229.85197785857429
 20
-214.39210109459327
 42
-0.2857225141363112
 70
               2
 50
-116.35491573471559
  0
VERTEX
  8
__-1
  6
CONTINUOUS
 62
               4
 10
-245.62374115216619
 20
-212.82482242668539
  0
VERTEX
  8
__-1
  6
CONTINUOUS
 62
               4
 10
-245.62374115216619
 20
-212.82482242668539
 42
-0.0492238231156726
 70
               2
 50
74.489726411499277
  0
VERTEX
  8
__-1
  6
CONTINUOUS
 62
               4
 10
-252.11448299883443
 20
-206.7290260380887
  0
VERTEX
  8
__-1
  6
CONTINUOUS
 62
               4
 10
-252.11448299883443
 20
-206.7290260380887
 42
0.4142135623729435
 70
               2
 50
50.090123674622518
  0
VERTEX
  8
__-1
  6
CONTINUOUS
 62
               4
 10
-257.05312486770447
 20
-206.39764032953417
  0
VERTEX
  8
__-1
  6
CONTINUOUS
 62
               4
 10
-257.05312486770447
 20
-206.39764032953417
 42
0.4142135623729433
 70
               2
 50
-65.537996498786853
  0
VERTEX
  8
__-1
  6
CONTINUOUS
 62
               4
 10
-257.38451057625855
 20
-211.33628219840375
  0
VERTEX
  8
__-1
  6
CONTINUOUS
 62
               4
 10
-257.38451057625855
 20
-211.33628219840375
 42
0.2163849855006
 70
               2
 50
50.090123674594544
  0
VERTEX
  8
__-1
  6
CONTINUOUS
 62
               4
 10
-217.98454247548045
 20
-229.22499901322317
  0
VERTEX
  8
__-1
  6
CONTINUOUS
 62
               4
 10
-217.98454247548045
 20
-229.22499901322317
 42
0.2163849855005948
 70
               2
 50
3.1191399769264294E+17
  0
VERTEX
  8
__-1
  6
CONTINUOUS
 62
               4
 10
-178.58457437470236
 20
-211.33628219840375
  0
VERTEX
  8
__-1
  6
CONTINUOUS
 62
               4
 10
-178.58457437470236
 20
-211.33628219840375
 42
0.4137161766923659
 70
               2
 50
-48.565119826195883
  0
VERTEX
  8
__-1
  6
CONTINUOUS
 62
               4
 10
-178.986881797313
 20
-206.40713054641856
  0
VERTEX
  8
__-1
  6
CONTINUOUS
 62
               4
 10
-178.986881797313
 20
-206.40713054641856
 42
0.41371617669235
 70
               2
 50
67.363668796510453
  0
VERTEX
  8
__-1
  6
CONTINUOUS
 62
               4
 10
-183.91670964999878
 20
-206.80106532964555
  0
SEQEND
  8
__-1
  6
CONTINUOUS
 62
               4
  0
CIRCLE
  8
___
  6
CONTINUOUS
 62
               4
 10
-217.98454247548136
 20
-187.22499901322362
 40
5.0
  0
CIRCLE
  8
___
  6
CONTINUOUS
 62
               4
 10
-217.98454247547227
 20
-195.72499901367382
 40
1.5
  0
CIRCLE
  8
___
  6
CONTINUOUS
 62
               4
 10
-181.25449350253177
 20
-209.07320202965093
 40
1.5
  0
CIRCLE
  8
___
  6
CONTINUOUS
 62
               4
 10
-254.74949678754649
 20
-209.03265411824623
 40
1.5
  0
POLYLINE
  8
__-1
  6
CONTINUOUS
 62
               4
 66
               1
 70
             129
  0
VERTEX
  8
__-1
  6
CONTINUOUS
 62
               4
 10
-217.01117900181646
 20
-205.06184065415073
  0
VERTEX
  8
__-1
  6
CONTINUOUS
 62
               4
 10
-217.01117900181646
 20
-205.06184065415073
 42
0.2001762407954641
 70
               2
 50
13.495043239485515
  0
VERTEX
  8
__-1
  6
CONTINUOUS
 62
               4
 10
-208.8869942868306
 20
-216.28794459709388
  0
VERTEX
  8
__-1
  6
CONTINUOUS
 62
               4
 10
-208.8869942868306
 20
-216.28794459709388
 42
0.2001762407954704
 70
               2
 50
93.615723518852406
  0
VERTEX
  8
__-1
  6
CONTINUOUS
 62
               4
 10
-195.1937716786889
 20
-218.41478300769995
  0
VERTEX
  8
__-1
  6
CONTINUOUS
 62
               4
 10
-195.1937716786889
 20
-218.41478300769995
 42
-0.3772592542585415
 70
               2
 50
-233.08016075240732
  0
VERTEX
  8
__-1
  6
CONTINUOUS
 62
               4
 10
-194.02231113910614
 20
-219.02534178157339
  0
VERTEX
  8
__-1
  6
CONTINUOUS
 62
               4
 10
-194.02231113910614
 20
-219.02534178157339
 42
-0.3772592542589155
 70
               2
 50
22.14632517901201
  0
VERTEX
  8
__-1
  6
CONTINUOUS
 62
               4
 10
-194.47858929091956
 20
-220.26506435551073
  0
VERTEX
  8
__-1
  6
CONTINUOUS
 62
               4
 10
-194.47858929091956
 20
-220.26506435551073
 42
-0.2535501402020018
 70
               2
 50
-105.72346457191979
  0
VERTEX
  8
__-1
  6
CONTINUOUS
 62
               4
 10
-241.49051693549802
 20
-220.2650528254826
  0
VERTEX
  8
__-1
  6
CONTINUOUS
 62
               4
 10
-241.49051693549802
 20
-220.2650528254826
 42
-0.3772592671785767
 70
               2
 50
105.72334077619219
  0
VERTEX
  8
__-1
  6
CONTINUOUS
 62
               4
 10
-241.94679446289877
 20
-219.02532998553579
  0
VERTEX
  8
__-1
  6
CONTINUOUS
 62
               4
 10
-241.94679446289877
 20
-219.02532998553579
 42
-0.3772592671786341
 70
               2
 50
-22.14636046166197
  0
VERTEX
  8
__-1
  6
CONTINUOUS
 62
               4
 10
-240.77533355227308
 20
-218.41477185007807
  0
VERTEX
  8
__-1
  6
CONTINUOUS
 62
               4
 10
-240.77533355227308
 20
-218.41477185007807
 42
0.200176212820303
 70
               2
 50
233.07957657917316
  0
VERTEX
  8
__-1
  6
CONTINUOUS
 62
               4
 10
-227.08210514250561
 20
-216.28794144038602
  0
VERTEX
  8
__-1
  6
CONTINUOUS
 62
               4
 10
-227.08210514250561
 20
-216.28794144038602
 42
0.200176212820336
 70
               2
 50
-93.615868297269373
  0
VERTEX
  8
__-1
  6
CONTINUOUS
 62
               4
 10
-218.95790945239708
 20
-205.06183987918212
  0
VERTEX
  8
__-1
  6
CONTINUOUS
 62
               4
 10
-218.95790945239708
 20
-205.06183987918212
 42
-0.3479750817196674
 70
               2
 50
-13.495091387706879
  0
VERTEX
  8
__-1
  6
CONTINUOUS
 62
               4
 10
-217.98454392028464
 20
-204.29110024615693
  0
VERTEX
  8
__-1
  6
CONTINUOUS
 62
               4
 10
-217.98454392028464
 20
-204.29110024615693
 42
-0.3479750817197255
 70
               2
 50
143927856.66914138
  0
VERTEX
  8
__-1
  6
CONTINUOUS
 62
               4
 10
-217.01117900181646
 20
-205.06184065415073
  0
SEQEND
  8
__-1
  6
CONTINUOUS
 62
               4
  0
CIRCLE
  8
__-1
  6
CONTINUOUS
 62
               4
 10
-217.98454247548136
 20
-179.22499901322362
 40
1.5499999999997272
  0
CIRCLE
  8
___
  6
CONTINUOUS
 62
               4
 10
-190.28155533720076
 20
-179.2249990132218
 40
4.0
  0
LINE
  8
___
  6
CONTINUOUS
 62
               4
 10
-194.28155533720076
 20
-179.2249990132218
 11
-186.28155533720076
 21
-179.2249990132218
  0
LINE
  8
___
  6
CONTINUOUS
 62
               4
 10
-190.28155533720076
 20
-175.2249990132218
 11
-190.28155533720076
 21
-183.2249990132218
  0
POLYLINE
  8
__-1
  6
CONTINUOUS
 62
               4
 66
               1
 70
             128
  0
VERTEX
  8
__-1
  6
CONTINUOUS
 62
               4
 10
-206.303431779476
 20
-168.49496718015553
  0
VERTEX
  8
__-1
  6
CONTINUOUS
 62
               4
 10
-193.8451458507194
 20
-179.99251752347027
  0
VERTEX
  8
__-1
  6
CONTINUOUS
 62
               4
 10
-193.8451458507194
 20
-179.99251752347027
 42
-0.1218680523131409
 70
               2
 50
62.083416238592555
  0
VERTEX
  8
__-1
  6
CONTINUOUS
 62
               4
 10
-193.58072843819548
 20
-180.3935266550302
  0
VERTEX
  8
__-1
  6
CONTINUOUS
 62
               4
 10
-193.58072843819548
 20
-180.3935266550302
 42
0.3909124437706514
 70
               2
 50
20.293479629736318
  0
VERTEX
  8
__-1
  6
CONTINUOUS
 62
               4
 10
-189.38111099125365
 20
-182.60718765075353
  0
VERTEX
  8
__-1
  6
CONTINUOUS
 62
               4
 10
-189.38111099125365
 20
-182.60718765075353
 42
0.3909124437705355
 70
               2
 50
-215.21056278501945
  0
VERTEX
  8
__-1
  6
CONTINUOUS
 62
               4
 10
-186.83809662962415
 20
-178.59842728610329
  0
VERTEX
  8
__-1
  6
CONTINUOUS
 62
               4
 10
-187.54832733265505
 20
-174.69520281411997
  0
VERTEX
  8
__-1
  6
CONTINUOUS
 62
               4
 10
-187.54832733265505
 20
-174.69520281411997
 42
0.2224001449325015
 70
               2
 50
10.425539718950427
  0
VERTEX
  8
__-1
  6
CONTINUOUS
 62
               4
 10
-188.03924485606751
 20
-174.00415310197604
  0
VERTEX
  8
__-1
  6
CONTINUOUS
 62
               4
 10
-192.32962786410201
 20
-171.5734881551798
  0
VERTEX
  8
__-1
  6
CONTINUOUS
 62
               4
 10
-192.32962786410201
 20
-171.5734881551798
 42
-0.3832880996232438
 70
               2
 50
101.13316488927298
  0
VERTEX
  8
__-1
  6
CONTINUOUS
 62
               4
 10
-192.7543289114484
 20
-170.30597957842701
  0
VERTEX
  8
__-1
  6
CONTINUOUS
 62
               4
 10
-192.5544869436377
 20
-169.84457279889693
  0
VERTEX
  8
__-1
  6
CONTINUOUS
 62
               4
 10
-192.5544869436377
 20
-169.84457279889693
 42
0.3832880996231574
 70
               2
 50
-24.815633044683871
  0
VERTEX
  8
__-1
  6
CONTINUOUS
 62
               4
 10
-192.97918799098409
 20
-168.57706422214551
  0
VERTEX
  8
__-1
  6
CONTINUOUS
 62
               4
 10
-202.61044002884876
 20
-163.1205940938703
  0
VERTEX
  8
__-1
  6
CONTINUOUS
 62
               4
 10
-202.43189574777591
 20
-162.70836065443882
  0
VERTEX
  8
__-1
  6
CONTINUOUS
 62
               4
 10
-202.43189574777591
 20
-162.70836065443882
 42
0.1994318242636275
 70
               2
 50
-24.815633044895094
  0
VERTEX
  8
__-1
  6
CONTINUOUS
 62
               4
 10
-202.42036863592341
 20
-161.94123436431755
  0
VERTEX
  8
__-1
  6
CONTINUOUS
 62
               4
 10
-202.42036863592341
 20
-161.94123436431755
 42
0.1994318242619053
 70
               2
 50
22.796557703129729
  0
VERTEX
  8
__-1
  6
CONTINUOUS
 62
               4
 10
-202.95575725268702
 20
-161.39171216427121
  0
VERTEX
  8
__-1
  6
CONTINUOUS
 62
               4
 10
-202.95575725268702
 20
-161.39171216427121
 42
0.1661601919336708
 70
               2
 50
133.75120722231276
  0
VERTEX
  8
__-1
  6
CONTINUOUS
 62
               4
 10
-214.50953988035292
 20
-160.51873039069596
  0
VERTEX
  8
__-1
  6
CONTINUOUS
 62
               4
 10
-214.50953988035292
 20
-160.51873039069596
 42
0.2293785258867148
 70
               2
 50
-220.79553211664759
  0
VERTEX
  8
__-1
  6
CONTINUOUS
 62
               4
 10
-215.17348351998919
 20
-161.08349307227354
  0
VERTEX
  8
__-1
  6
CONTINUOUS
 62
               4
 10
-216.21452951493359
 20
-163.44642691573472
  0
VERTEX
  8
__-1
  6
CONTINUOUS
 62
               4
 10
-216.21452951493359
 20
-163.44642691573472
 42
-0.1027836576473782
 70
               2
 50
-25.243001175951374
  0
VERTEX
  8
__-1
  6
CONTINUOUS
 62
               4
 10
-216.45086180040119
 20
-163.77758209182548
  0
VERTEX
  8
__-1
  6
CONTINUOUS
 62
               4
 10
-216.45086180040119
 20
-163.77758209182548
 42
0.3974663682070497
 70
               2
 50
-61.984202772733262
  0
VERTEX
  8
__-1
  6
CONTINUOUS
 62
               4
 10
-216.71373120340024
 20
-167.63488090265901
  0
VERTEX
  8
__-1
  6
CONTINUOUS
 62
               4
 10
-216.71373120340024
 20
-167.63488090265901
 42
0.3974663682052272
 70
               2
 50
47.153312057069058
  0
VERTEX
  8
__-1
  6
CONTINUOUS
 62
               4
 10
-212.87792120908182
 20
-168.11904629450737
  0
VERTEX
  8
__-1
  6
CONTINUOUS
 62
               4
 10
-212.87792120908182
 20
-168.11904629450737
 42
-0.360417422142061
 70
               2
 50
-78.40429785118107
  0
VERTEX
  8
__-1
  6
CONTINUOUS
 62
               4
 10
-206.27570458474167
 20
-168.52074427011894
  0
SEQEND
  8
__-1
  6
CONTINUOUS
 62
               4
  0
CIRCLE
  8
__-1
  6
CONTINUOUS
 62
               4
 10
-190.28155533720076
 20
-179.22499901322089
 40
2.5000000000000524
  0
CIRCLE
  8
__-1
  6
CONTINUOUS
 62
               4
 10
-214.53940376952062
 20
-165.84545171825403
 40
1.4999999999999185
  0
CIRCLE
  8
___
  6
CONTINUOUS
 62
               4
 10
-217.98454247548409
 20
-180.22499901322271
 40
4.0
  0
CIRCLE
  8
___
  6
CONTINUOUS
 62
               4
 10
-190.28155533719985
 20
-179.22499901322089
 40
1.5
  0
CIRCLE
  8
0
  6
CONTINUOUS
 62
               4
 10
-169.30113944812467
 20
-146.38985004662845
 40
1.5
  0
CIRCLE
  8
CONT
  6
CONTINUOUS
 62
               4
 10
-242.04601890822607
 20
-141.9789250343706
 40
1.5
  0
CIRCLE
  8
CONT
  6
CONTINUOUS
 62
               4
 10
-218.04601890822516
 20
-141.9789250343706
 40
1.5
  0
CIRCLE
  8
0
  6
CONTINUOUS
 62
               4
 10
-249.50834300778126
 20
-174.72499901322317
 40
1.5
  0
POLYLINE
  8
CONT
  6
CONTINUOUS
 62
               4
 66
               1
 70
             129
  0
VERTEX
  8
CONT
  6
CONTINUOUS
 62
               4
 10
-166.06455714883225
 20
-144.03941710355093
  0
VERTEX
  8
CONT
  6
CONTINUOUS
 62
               4
 10
-166.06455714883225
 20
-144.03941710355093
 42
0.2401366092089063
 70
               2
 50
41.60867087984456
  0
VERTEX
  8
CONT
  6
CONTINUOUS
 62
               4
 10
-169.30113944812467
 20
-142.38985004662845
  0
VERTEX
  8
CONT
  6
CONTINUOUS
 62
               4
 10
-204.77921047012217
 20
-142.38985004662845
  0
VERTEX
  8
CONT
  6
CONTINUOUS
 62
               4
 10
-204.77921047012217
 20
-142.38985004662845
 42
-0.1989123673798264
 70
               2
 50
-224151636547928.53
  0
VERTEX
  8
CONT
  6
CONTINUOUS
 62
               4
 10
-206.1934240324955
 20
-141.80406360900133
  0
VERTEX
  8
CONT
  6
CONTINUOUS
 62
               4
 10
-210.63277616949938
 20
-137.364711471997
  0
VERTEX
  8
CONT
  6
CONTINUOUS
 62
               4
 10
-210.63277616949938
 20
-137.364711471997
 42
0.198912367379305
 70
               2
 50
57.295779513127229
  0
VERTEX
  8
CONT
  6
CONTINUOUS
 62
               4
 10
-212.0469897318718
 20
-136.77892503436988
  0
VERTEX
  8
CONT
  6
CONTINUOUS
 62
               4
 10
-246.81823558322242
 20
-136.77892503436988
  0
VERTEX
  8
CONT
  6
CONTINUOUS
 62
               4
 10
-246.81823558322242
 20
-136.77892503436988
 42
0.3884029654973936
 70
               2
 50
9.3574199307792870E+17
  0
VERTEX
  8
CONT
  6
CONTINUOUS
 62
               4
 10
-248.81033405992832
 20
-138.60131968788437
  0
VERTEX
  8
CONT
  6
CONTINUOUS
 62
               4
 10
-250.96554243060302
 20
-162.77507006849783
  0
VERTEX
  8
CONT
  6
CONTINUOUS
 62
               4
 10
-250.96554243060302
 20
-162.77507006849783
 42
-0.2910453275808983
 70
               2
 50
-5.1081996655847028
  0
VERTEX
  8
CONT
  6
CONTINUOUS
 62
               4
 10
-252.92784080607191
 20
-165.32781673309364
  0
VERTEX
  8
CONT
  6
CONTINUOUS
 62
               4
 10
-252.92784080607191
 20
-165.32781673309364
 42
0.2923580563530325
 70
               2
 50
-157.45554339455921
  0
VERTEX
  8
CONT
  6
CONTINUOUS
 62
               4
 10
-259.47301604635061
 20
-173.88518282329096
  0
VERTEX
  8
CONT
  6
CONTINUOUS
 62
               4
 10
-259.47301604635061
 20
-173.88518282329096
 42
0.3351470150326671
 70
               2
 50
-4.8288511889543004
  0
VERTEX
  8
CONT
  6
CONTINUOUS
 62
               4
 10
-253.0437079813538
 20
-184.07920632876267
  0
VERTEX
  8
CONT
  6
CONTINUOUS
 62
               4
 10
-223.6411264332429
 20
-195.1917307182016
  0
VERTEX
  8
CONT
  6
CONTINUOUS
 62
               4
 10
-223.6411264332429
 20
-195.1917307182016
 42
0.1650390109726049
 70
               2
 50
151.59866205534419
  0
VERTEX
  8
CONT
  6
CONTINUOUS
 62
               4
 10
-213.36472091817461
 20
-195.54352533851306
  0
VERTEX
  8
CONT
  6
CONTINUOUS
 62
               4
 10
-181.00623365153035
 20
-185.78473272384508
  0
VERTEX
  8
CONT
  6
CONTINUOUS
 62
               4
 10
-181.00623365153035
 20
-185.78473272384508
 42
0.2455887362955875
 70
               2
 50
-189.98300558412376
  0
VERTEX
  8
CONT
  6
CONTINUOUS
 62
               4
 10
-176.46925308931725
 20
-181.34509721182303
  0
VERTEX
  8
CONT
  6
CONTINUOUS
 62
               4
 10
-165.497454618505
 20
-147.62758253667562
  0
VERTEX
  8
CONT
  6
CONTINUOUS
 62
               4
 10
-165.497454618505
 20
-147.62758253667562
 42
0.2401366092087523
 70
               2
 50
-18.644249201105058
  0
VERTEX
  8
CONT
  6
CONTINUOUS
 62
               4
 10
-166.06455714883225
 20
-144.03941710355093
  0
SEQEND
  8
CONT
  6
CONTINUOUS
 62
               4
  0
CIRCLE
  8
___
  6
CONTINUOUS
 62
               4
 10
-249.50834300778035
 20
-174.7249990132218
 40
14.0
  0
LINE
  8
___
  6
STYLE_09
 62
               4
 10
-251.0958430077809
 20
-174.7249990132218
 11
-247.92084300778072
 21
-174.7249990132218
  0
LINE
  8
___
  6
STYLE_09
 62
               4
 10
-252.68334300778054
 20
-174.7249990132218
 11
-266.68334300778054
 21
-174.7249990132218
  0
LINE
  8
___
  6
STYLE_09
 62
               4
 10
-246.33334300778108
 20
-174.7249990132218
 11
-232.33334300778108
 21
-174.7249990132218
  0
LINE
  8
___
  6
STYLE_09
 62
               4
 10
-249.50834300778035
 20
-173.13749901322171
 11
-249.50834300778035
 21
-176.3124990132219
  0
LINE
  8
___
  6
STYLE_09
 62
               4
 10
-249.50834300778035
 20
-177.89999901322199
 11
-249.50834300778035
 21
-191.89999901322199
  0
LINE
  8
___
  6
STYLE_09
 62
               4
 10
-249.50834300778035
 20
-171.54999901322162
 11
-249.50834300778035
 21
-157.54999901322162
  0
CIRCLE
  8
___
  6
STYLE_09
 62
               4
 10
-249.50834300778035
 20
-174.7249990132218
 40
12.0
  0
TEXT
  8
___
 62
               4
 10
-252.9083430077809
 20
-186.75833234655531
 40
3.7041666666666662
  1
12
 11
-252.9083430077809
 21
-182.46149901322198
  0
CIRCLE
  8
___
  6
CONTINUOUS
 62
               4
 10
-217.98454247548409
 20
-180.22499901321908
 40
22.0
  0
LINE
  8
___
  6
STYLE_09
 62
               4
 10
-219.57204247548373
 20
-180.22499901321908
 11
-216.39704247548354
 21
-180.22499901321908
  0
LINE
  8
___
  6
STYLE_09
 62
               4
 10
-221.15954247548336
 20
-180.22499901321908
 11
-243.15954247548336
 21
-180.22499901321908
  0
LINE
  8
___
  6
STYLE_09
 62
               4
 10
-214.80954247548391
 20
-180.22499901321908
 11
-192.80954247548391
 21
-180.22499901321908
  0
LINE
  8
___
  6
STYLE_09
 62
               4
 10
-217.98454247548409
 20
-178.63749901321899
 11
-217.98454247548409
 21
-181.81249901321917
  0
LINE
  8
___
  6
STYLE_09
 62
               4
 10
-217.98454247548409
 20
-183.39999901321926
 11
-217.98454247548409
 21
-205.39999901321926
  0
LINE
  8
___
  6
STYLE_09
 62
               4
 10
-217.98454247548409
 20
-177.04999901321889
 11
-217.98454247548409
 21
-155.04999901321889
  0
CIRCLE
  8
___
  6
STYLE_09
 62
               4
 10
-217.98454247548409
 20
-180.22499901321908
 40
20.0
  0
TEXT
  8
___
 62
               4
 10
-224.39704247548354
 20
-196.9583323465524
 40
3.7041666666666662
  1
20
 11
-224.39704247548354
 21
-192.66149901321907
  0
LINE
  8
__-1
  6
CONTINUOUS
 62
               4
 10
-217.98454247548409
 20
-69.593547104745994
 11
-217.98454247548409
 21
-257.09354710474599
  0
POLYLINE
  8
__-1
  6
CONTINUOUS
 62
               4
 66
               1
 70
             129
  0
VERTEX
  8
__-1
  6
CONTINUOUS
 62
               4
 10
7.6105403584575697
 20
-151.88527704607031
  0
VERTEX
  8
__-1
  6
CONTINUOUS
 62
               4
 10
7.6105403584575697
 20
-151.88527704607031
 42
-0.2001762407954637
 70
               2
 50
-13.495043239485589
  0
VERTEX
  8
__-1
  6
CONTINUOUS
 62
               4
 10
-0.5136443565282889
 20
-163.11138098901347
  0
VERTEX
  8
__-1
  6
CONTINUOUS
 62
               4
 10
-0.5136443565282889
 20
-163.11138098901347
 42
-0.2001762407954888
 70
               2
 50
-93.615723518844817
  0
VERTEX
  8
__-1
  6
CONTINUOUS
 62
               4
 10
-14.206866964669985
 20
-165.23821939961954
  0
VERTEX
  8
__-1
  6
CONTINUOUS
 62
               4
 10
-14.206866964669985
 20
-165.23821939961954
 42
0.3772592542589291
 70
               2
 50
233.08016075172245
  0
VERTEX
  8
__-1
  6
CONTINUOUS
 62
               4
 10
-15.378327504252752
 20
-165.84877817349297
  0
VERTEX
  8
__-1
  6
CONTINUOUS
 62
               4
 10
-15.378327504252752
 20
-165.84877817349297
 42
0.3772592542591093
 70
               2
 50
-22.146325179037014
  0
VERTEX
  8
__-1
  6
CONTINUOUS
 62
               4
 10
-14.922049352439331
 20
-167.08850074743032
  0
VERTEX
  8
__-1
  6
CONTINUOUS
 62
               4
 10
-14.922049352439331
 20
-167.08850074743032
 42
0.2535501402020088
 70
               2
 50
105.72346457191657
  0
VERTEX
  8
__-1
  6
CONTINUOUS
 62
               4
 10
32.089878292139133
 20
-167.08848921740218
  0
VERTEX
  8
__-1
  6
CONTINUOUS
 62
               4
 10
32.089878292139133
 20
-167.08848921740218
 42
0.3772592671786055
 70
               2
 50
-105.72334077620462
  0
VERTEX
  8
__-1
  6
CONTINUOUS
 62
               4
 10
32.546155819539877
 20
-165.84876637745538
  0
VERTEX
  8
__-1
  6
CONTINUOUS
 62
               4
 10
32.546155819539877
 20
-165.84876637745538
 42
0.377259267178178
 70
               2
 50
22.146360461715393
  0
VERTEX
  8
__-1
  6
CONTINUOUS
 62
               4
 10
31.374694908914194
 20
-165.23820824199765
  0
VERTEX
  8
__-1
  6
CONTINUOUS
 62
               4
 10
31.374694908914194
 20
-165.23820824199765
 42
-0.2001762128203178
 70
               2
 50
-233.07957657914673
  0
VERTEX
  8
__-1
  6
CONTINUOUS
 62
               4
 10
17.681466499146723
 20
-163.11137783230561
  0
VERTEX
  8
__-1
  6
CONTINUOUS
 62
               4
 10
17.681466499146723
 20
-163.11137783230561
 42
-0.2001762128203517
 70
               2
 50
93.615868297275284
  0
VERTEX
  8
__-1
  6
CONTINUOUS
 62
               4
 10
9.5572708090381866
 20
-151.8852762711017
  0
VERTEX
  8
__-1
  6
CONTINUOUS
 62
               4
 10
9.5572708090381866
 20
-151.8852762711017
 42
0.347975081719499
 70
               2
 50
13.495091387724283
  0
VERTEX
  8
__-1
  6
CONTINUOUS
 62
               4
 10
8.5839052769257478
 20
-151.11453663807652
  0
VERTEX
  8
__-1
  6
CONTINUOUS
 62
               4
 10
8.5839052769257478
 20
-151.11453663807652
 42
0.3479750817196869
 70
               2
 50
-143927831.02382469
  0
VERTEX
  8
__-1
  6
CONTINUOUS
 62
               4
 10
7.6105403584575697
 20
-151.88527704607031
  0
SEQEND
  8
__-1
  6
CONTINUOUS
 62
               4
  0
POLYLINE
  8
__-1
  6
CONTINUOUS
 62
               4
 66
               1
 70
             129
  0
VERTEX
  8
__-1
  6
CONTINUOUS
 62
               4
 10
12.077843221488024
 20
-147.75858966559144
  0
VERTEX
  8
__-1
  6
CONTINUOUS
 62
               4
 10
12.077843221488024
 20
-143.57821137235942
  0
VERTEX
  8
__-1
  6
CONTINUOUS
 62
               4
 10
12.077843221488024
 20
-143.57821137235942
 42
-0.268119637457938
 70
               2
  0
VERTEX
  8
__-1
  6
CONTINUOUS
 62
               4
 10
13.078945150705863
 20
-141.84552483288599
  0
VERTEX
  8
__-1
  6
CONTINUOUS
 62
               4
 10
13.078945150705863
 20
-141.84552483288599
 42
0.2025404588629681
 70
               2
 50
-99.385141321986112
  0
VERTEX
  8
__-1
  6
CONTINUOUS
 62
               4
 10
17.307478552943053
 20
-136.26185901806502
  0
VERTEX
  8
__-1
  6
CONTINUOUS
 62
               4
 10
17.307478552943053
 20
-136.26185901806502
 42
0.2350973151054646
 70
               2
 50
-14.537599018014149
  0
VERTEX
  8
__-1
  6
CONTINUOUS
 62
               4
 10
15.609526580320221
 20
-128.42343540514412
  0
VERTEX
  8
__-1
  6
CONTINUOUS
 62
               4
 10
11.70640283132218
 20
-123.54843540514366
  0
VERTEX
  8
__-1
  6
CONTINUOUS
 62
               4
 10
11.70640283132218
 20
-123.54843540514366
 42
0.2277350772923167
 70
               2
 50
45.873336971270497
  0
VERTEX
  8
__-1
  6
CONTINUOUS
 62
               4
 10
8.5839038321224734
 20
-122.04843540514321
  0
VERTEX
  8
__-1
  6
CONTINUOUS
 62
               4
 10
8.5839038321224734
 20
-122.04843540514321
 42
0.2277350772923372
 70
               2
 50
9.3574199307792870E+17
  0
VERTEX
  8
__-1
  6
CONTINUOUS
 62
               4
 10
5.4614048329227671
 20
-123.54843540514321
  0
VERTEX
  8
__-1
  6
CONTINUOUS
 62
               4
 10
1.5582810839238164
 20
-128.42343540514366
  0
VERTEX
  8
__-1
  6
CONTINUOUS
 62
               4
 10
1.5582810839238164
 20
-128.42343540514366
 42
0.2350973151056511
 70
               2
 50
-45.873336971282548
  0
VERTEX
  8
__-1
  6
CONTINUOUS
 62
               4
 10
-0.1396708886990155
 20
-136.26185901806457
  0
VERTEX
  8
__-1
  6
CONTINUOUS
 62
               4
 10
-0.1396708886990155
 20
-136.26185901806457
 42
0.2025404588615793
 70
               2
 50
14.537599018011987
  0
VERTEX
  8
__-1
  6
CONTINUOUS
 62
               4
 10
4.0888625134954282
 20
-141.84552483286143
  0
VERTEX
  8
__-1
  6
CONTINUOUS
 62
               4
 10
4.0888625134954282
 20
-141.84552483286143
 42
-0.2681196374811815
 70
               2
 50
99.385141347291992
  0
VERTEX
  8
__-1
  6
CONTINUOUS
 62
               4
 10
5.0899644427560133
 20
-143.57821137223846
  0
VERTEX
  8
__-1
  6
CONTINUOUS
 62
               4
 10
5.0899644427560133
 20
-147.75858966560827
  0
VERTEX
  8
__-1
  6
CONTINUOUS
 62
               4
 10
5.0899644427560133
 20
-147.75858966560827
 42
-0.2857225141363272
 70
               2
  0
VERTEX
  8
__-1
  6
CONTINUOUS
 62
               4
 10
-3.2835315509668135
 20
-161.21553748652286
  0
VERTEX
  8
__-1
  6
CONTINUOUS
 62
               4
 10
-3.2835315509668135
 20
-161.21553748652286
 42
-0.2857225141363083
 70
               2
 50
-116.35491573471509
  0
VERTEX
  8
__-1
  6
CONTINUOUS
 62
               4
 10
-19.055294844550531
 20
-159.64825881861589
  0
VERTEX
  8
__-1
  6
CONTINUOUS
 62
               4
 10
-19.055294844550531
 20
-159.64825881861589
 42
-0.049861607598279
 70
               2
 50
74.489726411532686
  0
VERTEX
  8
__-1
  6
CONTINUOUS
 62
               4
 10
-25.621859733517681
 20
-153.46550891147899
  0
VERTEX
  8
__-1
  6
CONTINUOUS
 62
               4
 10
-25.621859733517681
 20
-153.46550891147899
 42
0.4142135623730984
 70
               2
 50
51.780479749648414
  0
VERTEX
  8
__-1
  6
CONTINUOUS
 62
               4
 10
-30.566066840509279
 20
-153.21551148333219
  0
VERTEX
  8
__-1
  6
CONTINUOUS
 62
               4
 10
-30.566066840509279
 20
-153.21551148333219
 42
0.4142135623731503
 70
               2
 50
-63.398530988605813
  0
VERTEX
  8
__-1
  6
CONTINUOUS
 62
               4
 10
-30.816064268656532
 20
-158.15971859032334
  0
VERTEX
  8
__-1
  6
CONTINUOUS
 62
               4
 10
-30.816064268656532
 20
-158.15971859032334
 42
0.2163849855006002
 70
               2
 50
50.090123674594501
  0
VERTEX
  8
__-1
  6
CONTINUOUS
 62
               4
 10
8.5839038321215639
 20
-176.04843540514275
  0
VERTEX
  8
__-1
  6
CONTINUOUS
 62
               4
 10
8.5839038321215639
 20
-176.04843540514275
 42
0.216384985500595
 70
               2
 50
3.1191399769264294E+17
  0
VERTEX
  8
__-1
  6
CONTINUOUS
 62
               4
 10
47.98387193289966
 20
-158.15971859032334
  0
VERTEX
  8
__-1
  6
CONTINUOUS
 62
               4
 10
47.98387193289966
 20
-158.15971859032334
 42
0.4142135623729839
 70
               2
 50
-50.090123674585428
  0
VERTEX
  8
__-1
  6
CONTINUOUS
 62
               4
 10
47.65248622434558
 20
-153.22107672145376
  0
VERTEX
  8
__-1
  6
CONTINUOUS
 62
               4
 10
47.65248622434558
 20
-153.22107672145376
 42
0.4142135623729771
 70
               2
 50
65.537996498859229
  0
VERTEX
  8
__-1
  6
CONTINUOUS
 62
               4
 10
42.713844355475544
 20
-153.55246243000829
  0
VERTEX
  8
__-1
  6
CONTINUOUS
 62
               4
 10
42.713844355475544
 20
-153.55246243000829
 42
-0.0492238231156289
 70
               2
 50
-50.090123684975985
  0
VERTEX
  8
__-1
  6
CONTINUOUS
 62
               4
 10
36.223102508807301
 20
-159.64825881860497
  0
VERTEX
  8
__-1
  6
CONTINUOUS
 62
               4
 10
36.223102508807301
 20
-159.64825881860497
 42
-0.285722514136308
 70
               2
 50
-74.489726411565329
  0
VERTEX
  8
__-1
  6
CONTINUOUS
 62
               4
 10
20.451339215215398
 20
-161.21553748651286
  0
VERTEX
  8
__-1
  6
CONTINUOUS
 62
               4
 10
20.451339215215398
 20
-161.21553748651286
 42
-0.2857225141363183
 70
               2
 50
116.35491573470455
  0
VERTEX
  8
__-1
  6
CONTINUOUS
 62
               4
 10
12.077843221488024
 20
-147.75858966559144
  0
SEQEND
  8
__-1
  6
CONTINUOUS
 62
               4
  0
CIRCLE
  8
___
  6
CONTINUOUS
 62
               4
 10
8.5839038321224734
 20
-134.04843540514321
 40
5.0
  0
CIRCLE
  8
___
  6
CONTINUOUS
 62
               4
 10
8.5839038321133785
 20
-142.54843540559341
 40
1.5
  0
CIRCLE
  8
___
  6
CONTINUOUS
 62
               4
 10
-28.218962001087107
 20
-155.81261375090116
 40
1.5
  0
CIRCLE
  8
___
  6
CONTINUOUS
 62
               4
 10
45.348858144187602
 20
-155.85609051016581
 40
1.5
  0
CIRCLE
  8
__-1
  6
CONTINUOUS
 62
               4
 10
8.5839038321224734
 20
-126.04843540514321
 40
1.5499999999997272
  0
POLYLINE
  8
__-1
  6
CONTINUOUS
 62
               4
 66
               1
 70
             129
  0
VERTEX
  8
__-1
  6
CONTINUOUS
 62
               4
 10
-23.68030796803248
 20
-158.34850350588749
  0
VERTEX
  8
__-1
  6
CONTINUOUS
 62
               4
 10
-23.68030796803248
 20
-158.34850350588749
 42
0.4142135623731029
 70
               2
 50
61.504354193081774
  0
VERTEX
  8
__-1
  6
CONTINUOUS
 62
               4
 10
-25.800298457629083
 20
-158.42360559557392
  0
VERTEX
  8
__-1
  6
CONTINUOUS
 62
               4
 10
-25.800298457629083
 20
-158.42360559557392
 42
0.4142135623730921
 70
               2
 50
-53.375186083691744
  0
VERTEX
  8
__-1
  6
CONTINUOUS
 62
               4
 10
-25.725196367943113
 20
-160.54359608517052
  0
VERTEX
  8
__-1
  6
CONTINUOUS
 62
               4
 10
-25.725196367943113
 20
-160.54359608517052
 42
0.0435518528436442
 70
               2
 50
61.503610071713702
  0
VERTEX
  8
__-1
  6
CONTINUOUS
 62
               4
 10
-18.827099473707108
 20
-165.92986494846082
  0
VERTEX
  8
__-1
  6
CONTINUOUS
 62
               4
 10
-18.827099473707108
 20
-165.92986494846082
 42
0.414213562373095
 70
               2
 50
88.238980861859432
  0
VERTEX
  8
__-1
  6
CONTINUOUS
 62
               4
 10
-16.752160684235037
 20
-165.48869715745604
  0
VERTEX
  8
__-1
  6
CONTINUOUS
 62
               4
 10
-16.752160684235037
 20
-165.48869715745604
 42
0.4142135623731235
 70
               2
 50
-37.203584152357394
  0
VERTEX
  8
__-1
  6
CONTINUOUS
 62
               4
 10
-17.193328475239809
 20
-163.41375836798352
  0
VERTEX
  8
__-1
  6
CONTINUOUS
 62
               4
 10
-17.193328475239809
 20
-163.41375836798352
 42
-0.0435520148145146
 70
               2
 50
88.2399319222028
  0
VERTEX
  8
__-1
  6
CONTINUOUS
 62
               4
 10
-23.68030796803248
 20
-158.34850350588749
  0
SEQEND
  8
__-1
  6
CONTINUOUS
 62
               4
  0
POLYLINE
  8
__-1
  6
CONTINUOUS
 62
               4
 66
               1
 70
             129
  0
VERTEX
  8
__-1
  6
CONTINUOUS
 62
               4
 10
35.994933966965277
 20
-165.92985076077866
  0
VERTEX
  8
__-1
  6
CONTINUOUS
 62
               4
 10
35.994933966965277
 20
-165.92985076077866
 42
0.0435518528436456
 70
               2
 50
-88.239877970388861
  0
VERTEX
  8
__-1
  6
CONTINUOUS
 62
               4
 10
42.893030861200373
 20
-160.54358189748837
  0
VERTEX
  8
__-1
  6
CONTINUOUS
 62
               4
 10
42.893030861200373
 20
-160.54358189748837
 42
0.4142135623729634
 70
               2
 50
-61.504354193082932
  0
VERTEX
  8
__-1
  6
CONTINUOUS
 62
               4
 10
42.968132950887252
 20
-158.42359140789176
  0
VERTEX
  8
__-1
  6
CONTINUOUS
 62
               4
 10
42.968132950887252
 20
-158.42359140789176
 42
0.4142135623730872
 70
               2
 50
53.375186083670819
  0
VERTEX
  8
__-1
  6
CONTINUOUS
 62
               4
 10
40.848142461290649
 20
-158.34848931820534
  0
VERTEX
  8
__-1
  6
CONTINUOUS
 62
               4
 10
40.848142461290649
 20
-158.34848931820534
 42
-0.0435520148144741
 70
               2
 50
-61.503564766379178
  0
VERTEX
  8
__-1
  6
CONTINUOUS
 62
               4
 10
34.361162968497069
 20
-163.41374418030136
  0
VERTEX
  8
__-1
  6
CONTINUOUS
 62
               4
 10
34.361162968497069
 20
-163.41374418030136
 42
0.4142135623731235
 70
               2
 50
-88.238980861859474
  0
VERTEX
  8
__-1
  6
CONTINUOUS
 62
               4
 10
33.919995177492297
 20
-165.48868296977389
  0
VERTEX
  8
__-1
  6
CONTINUOUS
 62
               4
 10
33.919995177492297
 20
-165.48868296977389
 42
0.4142135623729993
 70
               2
 50
37.203584152370418
  0
VERTEX
  8
__-1
  6
CONTINUOUS
 62
               4
 10
35.994933966965277
 20
-165.92985076077866
  0
SEQEND
  8
__-1
  6
CONTINUOUS
 62
               4
  0
POLYLINE
  8
___
  6
CONTINUOUS
 62
               4
 66
               1
 70
             129
  0
VERTEX
  8
___
  6
CONTINUOUS
 62
               4
 10
13.345714805892953
 20
-122.23593540514094
  0
VERTEX
  8
___
  6
CONTINUOUS
 62
               4
 10
17.248838554895087
 20
-127.11093540514003
  0
VERTEX
  8
___
  6
CONTINUOUS
 62
               4
 10
17.248838554895087
 20
-127.11093540514003
 42
-0.2268033183615793
 70
               2
 50
45.873336971315624
  0
VERTEX
  8
___
  6
CONTINUOUS
 62
               4
 10
19.423609435429285
 20
-136.43815974773906
  0
VERTEX
  8
___
  6
CONTINUOUS
 62
               4
 10
19.423609435429285
 20
-136.43815974773906
 42
-0.2268033183614626
 70
               2
 50
-12.631442590901656
  0
VERTEX
  8
___
  6
CONTINUOUS
 62
               4
 10
13.528492460275288
 20
-143.98629449542705
  0
VERTEX
  8
___
  6
CONTINUOUS
 62
               4
 10
13.528492460275288
 20
-143.98629449542705
 42
-0.2598226404172292
 70
               2
 50
-115.15565760831763
  0
VERTEX
  8
___
  6
CONTINUOUS
 62
               4
 10
12.555987530693642
 20
-143.94082833258608
  0
VERTEX
  8
___
  6
CONTINUOUS
 62
               4
 10
12.555987530693642
 20
-143.94082833258608
 42
-0.259822640417346
 70
               2
 50
92.386614655770799
  0
VERTEX
  8
___
  6
CONTINUOUS
 62
               4
 10
12.08303468113229
 20
-143.0898591133332
  0
VERTEX
  8
___
  6
CONTINUOUS
 62
               4
 10
12.08368941418405
 20
-142.51187672044944
  0
VERTEX
  8
___
  6
CONTINUOUS
 62
               4
 10
12.08368941418405
 20
-142.51187672044944
 42
0.4111593562775691
 70
               2
 50
0.5985104842057044
  0
VERTEX
  8
___
  6
CONTINUOUS
 62
               4
 10
8.5838805986360285
 20
-139.04845888319414
  0
VERTEX
  8
___
  6
CONTINUOUS
 62
               4
 10
8.5838805986360285
 20
-139.04845888319414
 42
-0.3521645384379691
 70
               2
 50
-61449544443060.93
  0
VERTEX
  8
___
  6
CONTINUOUS
 62
               4
 10
3.7004850192612366
 20
-135.12198001483694
  0
VERTEX
  8
___
  6
CONTINUOUS
 62
               4
 10
3.7004850192612366
 20
-135.12198001483694
 42
-0.3002994275919363
 70
               2
 50
12.595381450450974
  0
VERTEX
  8
___
  6
CONTINUOUS
 62
               4
 10
5.6776492670220478
 20
-129.97982035684799
  0
VERTEX
  8
___
  6
CONTINUOUS
 62
               4
 10
5.6776492670220478
 20
-129.97982035684799
 42
0.3659788751732067
 70
               2
 50
-80.212408904511719
  0
VERTEX
  8
___
  6
CONTINUOUS
 62
               4
 10
5.9956214114441764
 20
-128.72859265187253
  0
VERTEX
  8
___
  6
CONTINUOUS
 62
               4
 10
5.2838247269047542
 20
-127.26559680420269
  0
VERTEX
  8
___
  6
CONTINUOUS
 62
               4
 10
5.2838247269047542
 20
-127.26559680420269
 42
0.1613397188320379
 70
               2
 50
27.876323750996079
  0
VERTEX
  8
___
  6
CONTINUOUS
 62
               4
 10
5.0642774371132191
 20
-127.04041942835465
  0
VERTEX
  8
___
  6
CONTINUOUS
 62
               4
 10
3.7330743118910732
 20
-126.35053374525614
  0
VERTEX
  8
___
  6
CONTINUOUS
 62
               4
 10
3.7330743118910732
 20
-126.35053374525614
 42
0.3576232299881383
 70
               2
 50
110.55791215641611
  0
VERTEX
  8
___
  6
CONTINUOUS
 62
               4
 10
3.1126999680610652
 20
-126.48196118781516
  0
VERTEX
  8
___
  6
CONTINUOUS
 62
               4
 10
1.5598345932008897
 20
-128.42148536231116
  0
VERTEX
  8
___
  6
CONTINUOUS
 62
               4
 10
1.5598345932008897
 20
-128.42148536231116
 42
-0.2681608620580761
 70
               2
 50
-45.761825450817355
  0
VERTEX
  8
___
  6
CONTINUOUS
 62
               4
 10
0.5813133896737099
 20
-128.80423879889804
  0
VERTEX
  8
___
  6
CONTINUOUS
 62
               4
 10
0.5813133896737099
 20
-128.80423879889804
 42
-0.2681608620586466
 70
               2
 50
376.21103189483716
  0
VERTEX
  8
___
  6
CONTINUOUS
 62
               4
 10
-0.2389029305176109
 20
-128.14754318671294
  0
VERTEX
  8
___
  6
CONTINUOUS
 62
               4
 10
-0.2389029305176109
 20
-128.14754318671294
 42
-0.2681608620581613
 70
               2
 50
22.333289677601091
  0
VERTEX
  8
___
  6
CONTINUOUS
 62
               4
 10
-0.0794755865571233
 20
-127.10899282155515
  0
VERTEX
  8
___
  6
CONTINUOUS
 62
               4
 10
3.8220928583342584
 20
-122.23593540514776
  0
VERTEX
  8
___
  6
CONTINUOUS
 62
               4
 10
3.8220928583342584
 20
-122.23593540514776
 42
-0.2277350772926726
 70
               2
 50
-45.87333697115799
  0
VERTEX
  8
___
  6
CONTINUOUS
 62
               4
 10
8.583903832112469
 20
-119.94843540514466
  0
VERTEX
  8
___
  6
CONTINUOUS
 62
               4
 10
8.583903832112469
 20
-119.94843540514466
 42
-0.2277350772925869
 70
               2
 50
-48260811579151.016
  0
VERTEX
  8
___
  6
CONTINUOUS
 62
               4
 10
13.345714805892953
 20
-122.23593540514094
  0
SEQEND
  8
___
  6
CONTINUOUS
 62
               4
  0
POLYLINE
  8
__-1
  6
CONTINUOUS
 62
               4
 66
               1
 70
             129
  0
VERTEX
  8
__-1
  6
CONTINUOUS
 62
               4
 10
93.057626932232438
 20
-147.75858966559144
  0
VERTEX
  8
__-1
  6
CONTINUOUS
 62
               4
 10
93.057626932232893
 20
-143.57821137235942
  0
VERTEX
  8
__-1
  6
CONTINUOUS
 62
               4
 10
93.057626932232893
 20
-143.57821137235942
 42
0.268119637458353
 70
               2
  0
VERTEX
  8
__-1
  6
CONTINUOUS
 62
               4
 10
92.056525003015054
 20
-141.84552483288599
  0
VERTEX
  8
__-1
  6
CONTINUOUS
 62
               4
 10
92.056525003015054
 20
-141.84552483288599
 42
-0.2025404588629219
 70
               2
 50
99.385141321978082
  0
VERTEX
  8
__-1
  6
CONTINUOUS
 62
               4
 10
87.827991600777409
 20
-136.26185901806502
  0
VERTEX
  8
__-1
  6
CONTINUOUS
 62
               4
 10
87.827991600777409
 20
-136.26185901806502
 42
-0.2350973151054507
 70
               2
 50
14.537599018012477
  0
VERTEX
  8
__-1
  6
CONTINUOUS
 62
               4
 10
89.525943573400241
 20
-128.42343540514412
  0
VERTEX
  8
__-1
  6
CONTINUOUS
 62
               4
 10
93.429067322398737
 20
-123.54843540514366
  0
VERTEX
  8
__-1
  6
CONTINUOUS
 62
               4
 10
93.429067322398737
 20
-123.54843540514366
 42
-0.2277350772924294
 70
               2
 50
-45.873336971244932
  0
VERTEX
  8
__-1
  6
CONTINUOUS
 62
               4
 10
96.551566321597988
 20
-122.04843540514321
  0
VERTEX
  8
__-1
  6
CONTINUOUS
 62
               4
 10
96.551566321597988
 20
-122.04843540514321
 42
-0.2277350772923032
 70
               2
 50
895105624202290.87
  0
VERTEX
  8
__-1
  6
CONTINUOUS
 62
               4
 10
99.674065320797695
 20
-123.54843540514321
  0
VERTEX
  8
__-1
  6
CONTINUOUS
 62
               4
 10
103.57718906979665
 20
-128.42343540514366
  0
VERTEX
  8
__-1
  6
CONTINUOUS
 62
               4
 10
103.57718906979665
 20
-128.42343540514366
 42
-0.2350973151056602
 70
               2
 50
45.873336971284388
  0
VERTEX
  8
__-1
  6
CONTINUOUS
 62
               4
 10
105.27514104241948
 20
-136.26185901806457
  0
VERTEX
  8
__-1
  6
CONTINUOUS
 62
               4
 10
105.27514104241948
 20
-136.26185901806457
 42
-0.202540458861536
 70
               2
 50
-14.537599018013934
  0
VERTEX
  8
__-1
  6
CONTINUOUS
 62
               4
 10
101.04660764022549
 20
-141.84552483286143
  0
VERTEX
  8
__-1
  6
CONTINUOUS
 62
               4
 10
101.04660764022549
 20
-141.84552483286143
 42
0.2681196374811932
 70
               2
 50
-99.385141347298898
  0
VERTEX
  8
__-1
  6
CONTINUOUS
 62
               4
 10
100.0455057109649
 20
-143.57821137223846
  0
VERTEX
  8
__-1
  6
CONTINUOUS
 62
               4
 10
100.04550571096445
 20
-147.75858966560827
  0
VERTEX
  8
__-1
  6
CONTINUOUS
 62
               4
 10
100.04550571096445
 20
-147.75858966560827
 42
0.2857225141363095
 70
               2
  0
VERTEX
  8
__-1
  6
CONTINUOUS
 62
               4
 10
108.41900170468728
 20
-161.21553748652286
  0
VERTEX
  8
__-1
  6
CONTINUOUS
 62
               4
 10
108.41900170468728
 20
-161.21553748652286
 42
0.2857225141363159
 70
               2
 50
116.35491573471081
  0
VERTEX
  8
__-1
  6
CONTINUOUS
 62
               4
 10
124.19076499827099
 20
-159.64825881861589
  0
VERTEX
  8
__-1
  6
CONTINUOUS
 62
               4
 10
124.19076499827099
 20
-159.64825881861589
 42
0.0498616075982962
 70
               2
 50
-74.48972641154343
  0
VERTEX
  8
__-1
  6
CONTINUOUS
 62
               4
 10
130.7573298872386
 20
-153.46550891147899
  0
VERTEX
  8
__-1
  6
CONTINUOUS
 62
               4
 10
130.7573298872386
 20
-153.46550891147899
 42
-0.4142135623730984
 70
               2
 50
-51.780479749647867
  0
VERTEX
  8
__-1
  6
CONTINUOUS
 62
               4
 10
135.70153699422974
 20
-153.21551148333219
  0
VERTEX
  8
__-1
  6
CONTINUOUS
 62
               4
 10
135.70153699422974
 20
-153.21551148333219
 42
-0.414213562373095
 70
               2
 50
63.398530988593876
  0
VERTEX
  8
__-1
  6
CONTINUOUS
 62
               4
 10
135.95153442237699
 20
-158.15971859032334
  0
VERTEX
  8
__-1
  6
CONTINUOUS
 62
               4
 10
135.95153442237699
 20
-158.15971859032334
 42
-0.2163849855005951
 70
               2
 50
-50.090123674595567
  0
VERTEX
  8
__-1
  6
CONTINUOUS
 62
               4
 10
96.551566321598898
 20
-176.04843540514275
  0
VERTEX
  8
__-1
  6
CONTINUOUS
 62
               4
 10
96.551566321598898
 20
-176.04843540514275
 42
-0.2163849855006002
 70
               2
 50
-5976857481566318.0
  0
VERTEX
  8
__-1
  6
CONTINUOUS
 62
               4
 10
57.151598220820802
 20
-158.15971859032334
  0
VERTEX
  8
__-1
  6
CONTINUOUS
 62
               4
 10
57.151598220820802
 20
-158.15971859032334
 42
-0.4142135623729939
 70
               2
 50
50.090123674577754
  0
VERTEX
  8
__-1
  6
CONTINUOUS
 62
               4
 10
57.482983929375337
 20
-153.22107672145376
  0
VERTEX
  8
__-1
  6
CONTINUOUS
 62
               4
 10
57.482983929375337
 20
-153.22107672145376
 42
-0.4142135623729938
 70
               2
 50
-65.537996498856288
  0
VERTEX
  8
__-1
  6
CONTINUOUS
 62
               4
 10
62.421625798244918
 20
-153.55246243000829
  0
VERTEX
  8
__-1
  6
CONTINUOUS
 62
               4
 10
62.421625798244918
 20
-153.55246243000829
 42
0.0492238231156291
 70
               2
 50
50.090123684975858
  0
VERTEX
  8
__-1
  6
CONTINUOUS
 62
               4
 10
68.912367644913161
 20
-159.64825881860497
  0
VERTEX
  8
__-1
  6
CONTINUOUS
 62
               4
 10
68.912367644913161
 20
-159.64825881860497
 42
0.285722514136302
 70
               2
 50
74.48972641156692
  0
VERTEX
  8
__-1
  6
CONTINUOUS
 62
               4
 10
84.684130938505064
 20
-161.21553748651286
  0
VERTEX
  8
__-1
  6
CONTINUOUS
 62
               4
 10
84.684130938505064
 20
-161.21553748651286
 42
0.2857225141363163
 70
               2
 50
-116.35491573470361
  0
VERTEX
  8
__-1
  6
CONTINUOUS
 62
               4
 10
93.057626932232438
 20
-147.75858966559144
  0
SEQEND
  8
__-1
  6
CONTINUOUS
 62
               4
  0
CIRCLE
  8
___
  6
CONTINUOUS
 62
               4
 10
96.551566321598443
 20
-134.04843540514321
 40
5.0
  0
POLYLINE
  8
__-1
  6
CONTINUOUS
 62
               4
 66
               1
 70
             129
  0
VERTEX
  8
__-1
  6
CONTINUOUS
 62
               4
 10
97.524929795263347
 20
-151.88527704607031
  0
VERTEX
  8
__-1
  6
CONTINUOUS
 62
               4
 10
97.524929795263347
 20
-151.88527704607031
 42
0.2001762407954809
 70
               2
 50
13.495043239481969
  0
VERTEX
  8
__-1
  6
CONTINUOUS
 62
               4
 10
105.64911451024875
 20
-163.11138098901347
  0
VERTEX
  8
__-1
  6
CONTINUOUS
 62
               4
 10
105.64911451024875
 20
-163.11138098901347
 42
0.2001762407954727
 70
               2
 50
93.615723518852406
  0
VERTEX
  8
__-1
  6
CONTINUOUS
 62
               4
 10
119.3423371183909
 20
-165.23821939961954
  0
VERTEX
  8
__-1
  6
CONTINUOUS
 62
               4
 10
119.3423371183909
 20
-165.23821939961954
 42
-0.3772592542585559
 70
               2
 50
-233.08016075237268
  0
VERTEX
  8
__-1
  6
CONTINUOUS
 62
               4
 10
120.51379765797367
 20
-165.84877817349297
  0
VERTEX
  8
__-1
  6
CONTINUOUS
 62
               4
 10
120.51379765797367
 20
-165.84877817349297
 42
-0.3772592542588025
 70
               2
 50
22.146325179001426
  0
VERTEX
  8
__-1
  6
CONTINUOUS
 62
               4
 10
120.05751950616025
 20
-167.08850074743032
  0
VERTEX
  8
__-1
  6
CONTINUOUS
 62
               4
 10
120.05751950616025
 20
-167.08850074743032
 42
-0.2535501402020063
 70
               2
 50
-105.72346457191779
  0
VERTEX
  8
__-1
  6
CONTINUOUS
 62
               4
 10
73.045591861581784
 20
-167.08848921740218
  0
VERTEX
  8
__-1
  6
CONTINUOUS
 62
               4
 10
73.045591861581784
 20
-167.08848921740218
 42
-0.3772592671788465
 70
               2
 50
105.72334077630966
  0
VERTEX
  8
__-1
  6
CONTINUOUS
 62
               4
 10
72.58931433418104
 20
-165.84876637745538
  0
VERTEX
  8
__-1
  6
CONTINUOUS
 62
               4
 10
72.58931433418104
 20
-165.84876637745538
 42
-0.3772592671785527
 70
               2
 50
-22.146360461672149
  0
VERTEX
  8
__-1
  6
CONTINUOUS
 62
               4
 10
73.760775244806723
 20
-165.23820824199765
  0
VERTEX
  8
__-1
  6
CONTINUOUS
 62
               4
 10
73.760775244806723
 20
-165.23820824199765
 42
0.2001762128203142
 70
               2
 50
233.07957657915799
  0
VERTEX
  8
__-1
  6
CONTINUOUS
 62
               4
 10
87.454003654573739
 20
-163.11137783230561
  0
VERTEX
  8
__-1
  6
CONTINUOUS
 62
               4
 10
87.454003654573739
 20
-163.11137783230561
 42
0.2001762128203396
 70
               2
 50
-93.615868297276094
  0
VERTEX
  8
__-1
  6
CONTINUOUS
 62
               4
 10
95.57819934468273
 20
-151.8852762711017
  0
VERTEX
  8
__-1
  6
CONTINUOUS
 62
               4
 10
95.57819934468273
 20
-151.8852762711017
 42
-0.3479750817198118
 70
               2
 50
-13.495091387676585
  0
VERTEX
  8
__-1
  6
CONTINUOUS
 62
               4
 10
96.551564876794714
 20
-151.11453663807652
  0
VERTEX
  8
__-1
  6
CONTINUOUS
 62
               4
 10
96.551564876794714
 20
-151.11453663807652
 42
-0.3479750817195395
 70
               2
 50
143927820.78399485
  0
VERTEX
  8
__-1
  6
CONTINUOUS
 62
               4
 10
97.524929795263347
 20
-151.88527704607031
  0
SEQEND
  8
__-1
  6
CONTINUOUS
 62
               4
  0
CIRCLE
  8
__-1
  6
CONTINUOUS
 62
               4
 10
96.551566321598443
 20
-126.04843540514321
 40
1.5499999999997272
  0
POLYLINE
  8
__-1
  6
CONTINUOUS
 62
               4
 66
               1
 70
             129
  0
VERTEX
  8
__-1
  6
CONTINUOUS
 62
               4
 10
128.8157781217534
 20
-158.34850350588749
  0
VERTEX
  8
__-1
  6
CONTINUOUS
 62
               4
 10
128.8157781217534
 20
-158.34850350588749
 42
-0.4142135623732127
 70
               2
 50
-61.50435419305969
  0
VERTEX
  8
__-1
  6
CONTINUOUS
 62
               4
 10
130.93576861135
 20
-158.42360559557392
  0
VERTEX
  8
__-1
  6
CONTINUOUS
 62
               4
 10
130.93576861135
 20
-158.42360559557392
 42
-0.4142135623729696
 70
               2
 50
53.375186083647264
  0
VERTEX
  8
__-1
  6
CONTINUOUS
 62
               4
 10
130.86066652166357
 20
-160.54359608517052
  0
VERTEX
  8
__-1
  6
CONTINUOUS
 62
               4
 10
130.86066652166357
 20
-160.54359608517052
 42
-0.0435518528436577
 70
               2
 50
-61.503610071706511
  0
VERTEX
  8
__-1
  6
CONTINUOUS
 62
               4
 10
123.96256962742802
 20
-165.92986494846082
  0
VERTEX
  8
__-1
  6
CONTINUOUS
 62
               4
 10
123.96256962742802
 20
-165.92986494846082
 42
-0.4142135623731104
 70
               2
 50
-88.238980861846798
  0
VERTEX
  8
__-1
  6
CONTINUOUS
 62
               4
 10
121.8876308379555
 20
-165.48869715745604
  0
VERTEX
  8
__-1
  6
CONTINUOUS
 62
               4
 10
121.8876308379555
 20
-165.48869715745604
 42
-0.4142135623731235
 70
               2
 50
37.203584152357401
  0
VERTEX
  8
__-1
  6
CONTINUOUS
 62
               4
 10
122.32879862896027
 20
-163.41375836798352
  0
VERTEX
  8
__-1
  6
CONTINUOUS
 62
               4
 10
122.32879862896027
 20
-163.41375836798352
 42
0.0435520148144908
 70
               2
 50
-88.239931922200313
  0
VERTEX
  8
__-1
  6
CONTINUOUS
 62
               4
 10
128.8157781217534
 20
-158.34850350588749
  0
SEQEND
  8
__-1
  6
CONTINUOUS
 62
               4
  0
POLYLINE
  8
__-1
  6
CONTINUOUS
 62
               4
 66
               1
 70
             129
  0
VERTEX
  8
__-1
  6
CONTINUOUS
 62
               4
 10
69.140536186755639
 20
-165.92985076077866
  0
VERTEX
  8
__-1
  6
CONTINUOUS
 62
               4
 10
69.140536186755639
 20
-165.92985076077866
 42
-0.0435518528436638
 70
               2
 50
88.239877970401992
  0
VERTEX
  8
__-1
  6
CONTINUOUS
 62
               4
 10
62.242439292520089
 20
-160.54358189748837
  0
VERTEX
  8
__-1
  6
CONTINUOUS
 62
               4
 10
62.242439292520089
 20
-160.54358189748837
 42
-0.414213562373095
 70
               2
 50
61.504354193083593
  0
VERTEX
  8
__-1
  6
CONTINUOUS
 62
               4
 10
62.167337202833664
 20
-158.42359140789176
  0
VERTEX
  8
__-1
  6
CONTINUOUS
 62
               4
 10
62.167337202833664
 20
-158.42359140789176
 42
-0.414213562373095
 70
               2
 50
-53.375186083669362
  0
VERTEX
  8
__-1
  6
CONTINUOUS
 62
               4
 10
64.287327692430267
 20
-158.34848931820534
  0
VERTEX
  8
__-1
  6
CONTINUOUS
 62
               4
 10
64.287327692430267
 20
-158.34848931820534
 42
0.043552014814494
 70
               2
 50
61.50356476637004
  0
VERTEX
  8
__-1
  6
CONTINUOUS
 62
               4
 10
70.774307185223392
 20
-163.41374418030136
  0
VERTEX
  8
__-1
  6
CONTINUOUS
 62
               4
 10
70.774307185223392
 20
-163.41374418030136
 42
-0.4142135623729734
 70
               2
 50
88.238980861812564
  0
VERTEX
  8
__-1
  6
CONTINUOUS
 62
               4
 10
71.215474976228165
 20
-165.48868296977389
  0
VERTEX
  8
__-1
  6
CONTINUOUS
 62
               4
 10
71.215474976228165
 20
-165.48868296977389
 42
-0.414213562372975
 70
               2
 50
-37.203584152370048
  0
VERTEX
  8
__-1
  6
CONTINUOUS
 62
               4
 10
69.140536186755639
 20
-165.92985076077866
  0
SEQEND
  8
__-1
  6
CONTINUOUS
 62
               4
  0
POLYLINE
  8
___
  6
CONTINUOUS
 62
               4
 66
               1
 70
             129
  0
VERTEX
  8
___
  6
CONTINUOUS
 62
               4
 10
91.789755347827509
 20
-122.23593540514094
  0
VERTEX
  8
___
  6
CONTINUOUS
 62
               4
 10
87.886631598825829
 20
-127.11093540514003
  0
VERTEX
  8
___
  6
CONTINUOUS
 62
               4
 10
87.886631598825829
 20
-127.11093540514003
 42
0.2268033183615878
 70
               2
 50
-45.873336971317201
  0
VERTEX
  8
___
  6
CONTINUOUS
 62
               4
 10
85.711860718291632
 20
-136.43815974773906
  0
VERTEX
  8
___
  6
CONTINUOUS
 62
               4
 10
85.711860718291632
 20
-136.43815974773906
 42
0.2268033183614563
 70
               2
 50
12.631442590900114
  0
VERTEX
  8
___
  6
CONTINUOUS
 62
               4
 10
91.606977693445174
 20
-143.98629449542705
  0
VERTEX
  8
___
  6
CONTINUOUS
 62
               4
 10
91.606977693445174
 20
-143.98629449542705
 42
0.2598226404173871
 70
               2
 50
115.15565760822675
  0
VERTEX
  8
___
  6
CONTINUOUS
 62
               4
 10
92.579482623027275
 20
-143.94082833258608
  0
VERTEX
  8
___
  6
CONTINUOUS
 62
               4
 10
92.579482623027275
 20
-143.94082833258608
 42
0.2598226404174924
 70
               2
 50
-92.386614655743202
  0
VERTEX
  8
___
  6
CONTINUOUS
 62
               4
 10
93.052435472588172
 20
-143.0898591133332
  0
VERTEX
  8
___
  6
CONTINUOUS
 62
               4
 10
93.051780739536866
 20
-142.51187672044944
  0
VERTEX
  8
___
  6
CONTINUOUS
 62
               4
 10
93.051780739536866
 20
-142.51187672044944
 42
-0.4111593562775749
 70
               2
 50
-0.5985104842052532
  0
VERTEX
  8
___
  6
CONTINUOUS
 62
               4
 10
96.551589555084888
 20
-139.04845888319414
  0
VERTEX
  8
___
  6
CONTINUOUS
 62
               4
 10
96.551589555084888
 20
-139.04845888319414
 42
0.3521645384374691
 70
               2
 50
3.1191399769264294E+17
  0
VERTEX
  8
___
  6
CONTINUOUS
 62
               4
 10
101.43498513445923
 20
-135.12198001483694
  0
VERTEX
  8
___
  6
CONTINUOUS
 62
               4
 10
101.43498513445923
 20
-135.12198001483694
 42
0.3002994275919071
 70
               2
 50
-12.595381450447794
  0
VERTEX
  8
___
  6
CONTINUOUS
 62
               4
 10
99.457820886698414
 20
-129.97982035684799
  0
VERTEX
  8
___
  6
CONTINUOUS
 62
               4
 10
99.457820886698414
 20
-129.97982035684799
 42
-0.3659788751730978
 70
               2
 50
80.212408904480768
  0
VERTEX
  8
___
  6
CONTINUOUS
 62
               4
 10
99.139848742276286
 20
-128.72859265187253
  0
VERTEX
  8
___
  6
CONTINUOUS
 62
               4
 10
99.851645426816162
 20
-127.26559680420269
  0
VERTEX
  8
___
  6
CONTINUOUS
 62
               4
 10
99.851645426816162
 20
-127.26559680420269
 42
-0.1613397188321276
 70
               2
 50
-27.876323750910199
  0
VERTEX
  8
___
  6
CONTINUOUS
 62
               4
 10
100.07119271660724
 20
-127.04041942835465
  0
VERTEX
  8
___
  6
CONTINUOUS
 62
               4
 10
101.40239584182984
 20
-126.35053374525614
  0
VERTEX
  8
___
  6
CONTINUOUS
 62
               4
 10
101.40239584182984
 20
-126.35053374525614
 42
-0.357623229988148
 70
               2
 50
-110.55791215641369
  0
VERTEX
  8
___
  6
CONTINUOUS
 62
               4
 10
102.02277018565985
 20
-126.48196118781516
  0
VERTEX
  8
___
  6
CONTINUOUS
 62
               4
 10
103.57563556051957
 20
-128.42148536231116
  0
VERTEX
  8
___
  6
CONTINUOUS
 62
               4
 10
103.57563556051957
 20
-128.42148536231116
 42
0.2681608620578297
 70
               2
 50
45.761825450875591
  0
VERTEX
  8
___
  6
CONTINUOUS
 62
               4
 10
104.55415676404721
 20
-128.80423879889804
  0
VERTEX
  8
___
  6
CONTINUOUS
 62
               4
 10
104.55415676404721
 20
-128.80423879889804
 42
0.2681608620585241
 70
               2
 50
-376.21103189429039
  0
VERTEX
  8
___
  6
CONTINUOUS
 62
               4
 10
105.37437308423853
 20
-128.14754318671294
  0
VERTEX
  8
___
  6
CONTINUOUS
 62
               4
 10
105.37437308423853
 20
-128.14754318671294
 42
0.2681608620583159
 70
               2
 50
-22.333289677620577
  0
VERTEX
  8
___
  6
CONTINUOUS
 62
               4
 10
105.21494574027804
 20
-127.10899282155515
  0
VERTEX
  8
___
  6
CONTINUOUS
 62
               4
 10
101.31337729538666
 20
-122.23593540514776
  0
VERTEX
  8
___
  6
CONTINUOUS
 62
               4
 10
101.31337729538666
 20
-122.23593540514776
 42
0.2277350772925975
 70
               2
 50
45.873336971174957
  0
VERTEX
  8
___
  6
CONTINUOUS
 62
               4
 10
96.551566321607993
 20
-119.94843540514466
  0
VERTEX
  8
___
  6
CONTINUOUS
 62
               4
 10
96.551566321607993
 20
-119.94843540514466
 42
0.227735077291962
 70
               2
 50
9.3574199307792870E+17
  0
VERTEX
  8
___
  6
CONTINUOUS
 62
               4
 10
91.789755347827509
 20
-122.23593540514094
  0
SEQEND
  8
___
  6
CONTINUOUS
 62
               4
  0
CIRCLE
  8
__-1
  6
CONTINUOUS
 62
               4
 10
133.35443215480757
 20
-155.81261375090116
 40
1.25
  0
CIRCLE
  8
__-1
  6
CONTINUOUS
 62
               4
 10
59.78661200953286
 20
-155.85609051016627
 40
1.25
  0
CIRCLE
  8
__-1
  6
CONTINUOUS
 62
               4
 10
96.551566321607083
 20
-142.54843540559341
 40
1.25
  0
TEXT
  8
__-1
 62
               4
 10
-75.763924207214785
 20
-40.962991549190086
 40
4.3215277777777779
  1
２ｔジュラルミン
 11
-75.763924207214785
 21
-35.950019326967862
  0
TEXT
  8
__-1
 62
               4
 10
-81.595868651659231
 20
-93.627523619334184
 40
4.3215277777777779
  1
５ｔくらいのＰＯＭ
 11
-81.595868651659231
 21
-88.614551397111967
  0
TEXT
  8
__-1
 62
               4
 10
-78.263924207214785
 20
-150.50188043807887
 40
4.3215277777777779
  1
３ｔジュラルミン
 11
-78.263924207214785
 21
-145.48890821585664
  0
TEXT
  8
__-1
 62
               4
 10
-88.508368651659225
 20
-200.43243599363453
 40
4.3215277777777779
  1
φ１０ジュラルミン丸棒
 11
-88.508368651659225
 21
-195.4194637714123
  0
TEXT
  8
__-1
 62
               4
 10
10.583298015007443
 20
-42.962991549190086
 40
4.3215277777777779
  1
×１２
 11
10.583298015007443
 21
-37.950019326967862
  0
TEXT
  8
__-1
 62
               4
 10
77.633350922199426
 20
-41.832435993634157
 40
4.3215277777777779
  1
×１２
 11
77.633350922199426
 21
-36.819463771411932
  0
TEXT
  8
__-1
 62
               4
 10
125.63335092219943
 20
-41.43243599363452
 40
3.8006293402777782
  1
×４
  7
_______
 11
125.63335092219943
 21
-36.940362208912298
  0
TEXT
  8
__-1
 62
               4
 10
18.491631348340775
 20
-96.915023619334093
 40
3.8006293402777782
  1
×４
  7
_______
 11
18.491631348340775
 21
-92.42294983461187
  0
TEXT
  8
__-1
 62
               4
 10
144.08329801500744
 20
-152.96299154919009
 40
4.3215277777777779
  1
×１２
 11
144.08329801500744
 21
-147.95001932696786
  0
TEXT
  8
__-1
 62
               4
 10
5.5832980150074434
 20
-200.96299154919009
 40
4.3215277777777779
  1
×１２
 11
5.5832980150074434
 21
-195.95001932696786
  0
POLYLINE
  8
__
  6
CONTINUOUS
 62
               4
 66
               1
 70
               1
  0
VERTEX
  8
__
  6
CONTINUOUS
 62
               4
 10
-14.808368651658782
 20
-253.29354710474581
  0
VERTEX
  8
__
  6
CONTINUOUS
 62
               4
 10
-4.9583686516588727
 20
-253.29354710474581
  0
VERTEX
  8
__
  6
CONTINUOUS
 62
               4
 10
-4.9583686516588727
 20
-255.42752170096128
  0
VERTEX
  8
__
  6
CONTINUOUS
 62
               4
 10
-14.808368651658782
 20
-255.42752170096128
  0
SEQEND
  8
__
  6
CONTINUOUS
 62
               4
  0
POLYLINE
  8
__
  6
CONTINUOUS
 62
               4
 66
               1
 70
               1
  0
VERTEX
  8
__
  6
CONTINUOUS
 62
               4
 10
-14.808368651658782
 20
-252.86053440285332
  0
VERTEX
  8
__
  6
CONTINUOUS
 62
               4
 10
-4.9583686516588727
 20
-252.86053440285332
  0
VERTEX
  8
__
  6
CONTINUOUS
 62
               4
 10
-4.9583686516588727
 20
-255.86053440285332
  0
VERTEX
  8
__
  6
CONTINUOUS
 62
               4
 10
-14.808368651658782
 20
-255.86053440285332
  0
SEQEND
  8
__
  6
CONTINUOUS
 62
               4
  0
POLYLINE
  8
__
  6
CONTINUOUS
 62
               4
 66
               1
 70
               1
  0
VERTEX
  8
__
  6
CONTINUOUS
 62
               4
 10
-15.308368651658782
 20
-255.86053440285332
  0
VERTEX
  8
__
  6
CONTINUOUS
 62
               4
 10
-16.958368651658873
 20
-257.51053440285386
  0
VERTEX
  8
__
  6
CONTINUOUS
 62
               4
 10
-16.958368651658873
 20
-251.21053440285368
  0
VERTEX
  8
__
  6
CONTINUOUS
 62
               4
 10
-15.308368651658782
 20
-252.86053440285332
  0
SEQEND
  8
__
  6
CONTINUOUS
 62
               4
  0
POLYLINE
  8
__
  6
CONTINUOUS
 62
               4
 66
               1
 70
               1
  0
VERTEX
  8
__
  6
CONTINUOUS
 62
               4
 10
-15.308368651658782
 20
-253.07704075379979
  0
VERTEX
  8
__
  6
CONTINUOUS
 62
               4
 10
-14.808368651658782
 20
-253.07704075379979
  0
VERTEX
  8
__
  6
CONTINUOUS
 62
               4
 10
-14.808368651658782
 20
-255.64402805190775
  0
VERTEX
  8
__
  6
CONTINUOUS
 62
               4
 10
-15.308368651658782
 20
-255.64402805190775
  0
SEQEND
  8
__
  6
CONTINUOUS
 62
               4
  0
TEXT
  8
__
 62
               4
 10
-11.780590873881103
 20
-255.66608995840897
 40
3.8006293402777782
  1
12
 50
90.0
  7
_______
 11
-16.272664658603325
 21
-255.66608995840897
  0
INSERT
  8
__
 62
               4
  2
___________
 10
-23.958368651658589
 20
-254.36053440285332
 50
90.0
  0
LINE
  8
__
  6
STYLE_06
 62
               4
 10
-29.558368651658782
 20
-254.36053440285332
 11
1.8416313483408544
 21
-254.36053440285332
  0
LINE
  8
__
  6
STYLE_06
 62
               4
 10
-29.058368651658782
 20
-269.99354710474563
 11
2.3416313483408544
 21
-269.99354710474563
  0
INSERT
  8
__
 62
               4
  2
___________-1
 10
-23.458368651658589
 20
-269.99354710474518
 50
90.0
  0
POLYLINE
  8
__
  6
CONTINUOUS
 62
               4
 66
               1
 70
               1
  0
VERTEX
  8
__
  6
CONTINUOUS
 62
               4
 10
-14.308368651658782
 20
-268.92655980663767
  0
VERTEX
  8
__
  6
CONTINUOUS
 62
               4
 10
-1.3083686516587818
 20
-268.92655980663767
  0
VERTEX
  8
__
  6
CONTINUOUS
 62
               4
 10
-1.3083686516587818
 20
-271.06053440285314
  0
VERTEX
  8
__
  6
CONTINUOUS
 62
               4
 10
-14.308368651658782
 20
-271.06053440285314
  0
SEQEND
  8
__
  6
CONTINUOUS
 62
               4
  0
POLYLINE
  8
__
  6
CONTINUOUS
 62
               4
 66
               1
 70
               1
  0
VERTEX
  8
__
  6
CONTINUOUS
 62
               4
 10
-14.308368651658782
 20
-268.49354710474563
  0
VERTEX
  8
__
  6
CONTINUOUS
 62
               4
 10
-1.3083686516587818
 20
-268.49354710474563
  0
VERTEX
  8
__
  6
CONTINUOUS
 62
               4
 10
-1.3083686516587818
 20
-271.49354710474563
  0
VERTEX
  8
__
  6
CONTINUOUS
 62
               4
 10
-14.308368651658782
 20
-271.49354710474563
  0
SEQEND
  8
__
  6
CONTINUOUS
 62
               4
  0
POLYLINE
  8
__
  6
CONTINUOUS
 62
               4
 66
               1
 70
               1
  0
VERTEX
  8
__
  6
CONTINUOUS
 62
               4
 10
-14.808368651658782
 20
-271.49354710474563
  0
VERTEX
  8
__
  6
CONTINUOUS
 62
               4
 10
-16.458368651658873
 20
-273.14354710474527
  0
VERTEX
  8
__
  6
CONTINUOUS
 62
               4
 10
-16.458368651658873
 20
-266.84354710474508
  0
VERTEX
  8
__
  6
CONTINUOUS
 62
               4
 10
-14.808368651658782
 20
-268.49354710474563
  0
SEQEND
  8
__
  6
CONTINUOUS
 62
               4
  0
POLYLINE
  8
__
  6
CONTINUOUS
 62
               4
 66
               1
 70
               1
  0
VERTEX
  8
__
  6
CONTINUOUS
 62
               4
 10
-14.808368651658782
 20
-268.7100534556912
  0
VERTEX
  8
__
  6
CONTINUOUS
 62
               4
 10
-14.308368651658782
 20
-268.7100534556912
  0
VERTEX
  8
__
  6
CONTINUOUS
 62
               4
 10
-14.308368651658782
 20
-271.27704075379916
  0
VERTEX
  8
__
  6
CONTINUOUS
 62
               4
 10
-14.808368651658782
 20
-271.27704075379916
  0
SEQEND
  8
__
  6
CONTINUOUS
 62
               4
  0
TEXT
  8
__
 62
               4
 10
-11.280590873881103
 20
-271.24910266030065
 40
3.8006293402777782
  1
15
 50
90.0
  7
_______
 11
-15.772664658603325
 21
-271.24910266030065
  0
TEXT
  8
__-1
 62
               4
 10
-79.708368651659242
 20
-256.5713248825237
 40
3.8006293402777782
  1
M3×11.5mm皿ネジ
  7
_______
 11
-79.708368651659242
 21
-247.14036220891256
  0
TEXT
  8
__-1
 62
               4
 10
-79.708368651659242
 20
-256.5713248825237
 40
3.8006293402777782
  1
(12mm皿ネジを削る）
  7
_______
 11
-79.708368651659242
 21
-252.07925109780146
  0
TEXT
  8
__-1
 62
               4
 10
-66.768090873881448
 20
-272.89354710474572
 40
3.8006293402777782
  1
M3×15mm皿ネジ
  7
_______
 11
-66.768090873881448
 21
-268.40147332002351
  0
TEXT
  8
__-1
 62
               4
 10
8.6916313483407777
 20
-272.56299154919043
 40
3.8006293402777782
  1
×８
  7
_______
 11
8.6916313483407777
 21
-268.07091776446822
  0
TEXT
  8
__-1
 62
               4
 10
5.5832980150074434
 20
-256.96299154919006
 40
3.8006293402777782
  1
×２４
  7
_______
 11
5.5832980150074434
 21
-252.47091776446786
  0
POLYLINE
  8
__-1
  6
STYLE_11
 62
               4
 66
               1
 70
               1
  0
VERTEX
  8
__-1
  6
STYLE_11
 62
               4
 10
-17.771359566903612
 20
-218.64354710474527
  0
VERTEX
  8
__-1
  6
STYLE_11
 62
               4
 10
-12.771359566903612
 20
-218.64354710474527
  0
VERTEX
  8
__-1
  6
STYLE_11
 62
               4
 10
-12.771359566903612
 20
-221.14354710474527
  0
VERTEX
  8
__-1
  6
STYLE_11
 62
               4
 10
-17.771359566903612
 20
-221.14354710474527
  0
SEQEND
  8
__-1
  6
STYLE_11
 62
               4
  0
POLYLINE
  8
__-1
  6
CONTINUOUS
 62
               4
 66
               1
 70
               1
  0
VERTEX
  8
__-1
  6
CONTINUOUS
 62
               4
 10
-17.771359566903612
 20
-217.39354710474527
  0
VERTEX
  8
__-1
  6
CONTINUOUS
 62
               4
 10
-12.771359566903612
 20
-217.39354710474527
  0
VERTEX
  8
__-1
  6
CONTINUOUS
 62
               4
 10
-12.771359566903612
 20
-222.39354710474527
  0
VERTEX
  8
__-1
  6
CONTINUOUS
 62
               4
 10
-17.771359566903612
 20
-222.39354710474527
  0
SEQEND
  8
__-1
  6
CONTINUOUS
 62
               4
  0
CIRCLE
  8
__-1
  6
CONTINUOUS
 62
               4
 10
-23.108368651659248
 20
-219.89354710474527
 40
2.5
  0
CIRCLE
  8
__-1
  6
CONTINUOUS
 62
               4
 10
-23.108368651659248
 20
-219.89354710474527
 40
1.25
  0
LINE
  8
__-1
  6
STYLE_06
 62
               4
 10
-28.308368651659265
 20
-219.89354710474527
 11
-11.321359566903624
 21
-219.89354710474527
  0
TEXT
  8
__-1
 62
               4
 10
-88.508368651659225
 20
-221.13243599363435
 40
3.8006293402777782
  1
φ５ステンレス丸棒
  7
_______
 11
-88.508368651659225
 21
-216.64036220891211
  0
TEXT
  8
__-1
 62
               4
 10
-8.4472575405481223
 20
-222.96299154919009
 40
3.8006293402777782
  1
×４
  7
_______
 11
-8.4472575405481223
 21
-218.47091776446786
  0
TEXT
  8
__-1
 62
               4
 10
-88.508368651659225
 20
-232.73243599363425
 40
3.8006293402777782
  1
φ３ステンレス丸棒
  7
_______
 11
-88.508368651659225
 21
-228.24036220891202
  0
POLYLINE
  8
__-1
  6
CONTINUOUS
 62
               4
 66
               1
 70
               1
  0
VERTEX
  8
__-1
  6
CONTINUOUS
 62
               4
 10
-18.208368651659214
 20
-228.69354710474545
  0
VERTEX
  8
__-1
  6
CONTINUOUS
 62
               4
 10
-13.208368651659214
 20
-228.69354710474545
  0
VERTEX
  8
__-1
  6
CONTINUOUS
 62
               4
 10
-13.208368651659214
 20
-231.69354710474545
  0
VERTEX
  8
__-1
  6
CONTINUOUS
 62
               4
 10
-18.208368651659214
 20
-231.69354710474545
  0
SEQEND
  8
__-1
  6
CONTINUOUS
 62
               4
  0
CIRCLE
  8
__-1
  6
CONTINUOUS
 62
               4
 10
-24.008368651659225
 20
-230.19354710474545
 40
1.5
  0
LINE
  8
__-1
  6
STYLE_06
 62
               4
 10
-28.808368651659237
 20
-230.19354710474545
 11
-11.821359566903595
 21
-230.19354710474545
  0
TEXT
  8
__-1
 62
               4
 10
-10.06289428002961
 20
-232.56299154919
 40
4.3215277777777779
  1
×１２
 11
-10.06289428002961
 21
-227.55001932696777
  0
POLYLINE
  8
__
  6
CONTINUOUS
 62
               4
 66
               1
 70
               1
  0
VERTEX
  8
__
  6
CONTINUOUS
 62
               4
 10
-11.008368651659225
 20
-286.42655980663767
  0
VERTEX
  8
__
  6
CONTINUOUS
 62
               4
 10
-7.1583686516593161
 20
-286.42655980663767
  0
VERTEX
  8
__
  6
CONTINUOUS
 62
               4
 10
-7.1583686516593161
 20
-288.56053440285314
  0
VERTEX
  8
__
  6
CONTINUOUS
 62
               4
 10
-11.008368651659225
 20
-288.56053440285314
  0
SEQEND
  8
__
  6
CONTINUOUS
 62
               4
  0
POLYLINE
  8
__
  6
CONTINUOUS
 62
               4
 66
               1
 70
               1
  0
VERTEX
  8
__
  6
CONTINUOUS
 62
               4
 10
-11.008368651659225
 20
-285.99354710474563
  0
VERTEX
  8
__
  6
CONTINUOUS
 62
               4
 10
-7.1583686516593161
 20
-285.99354710474563
  0
VERTEX
  8
__
  6
CONTINUOUS
 62
               4
 10
-7.1583686516593161
 20
-288.99354710474563
  0
VERTEX
  8
__
  6
CONTINUOUS
 62
               4
 10
-11.008368651659225
 20
-288.99354710474563
  0
SEQEND
  8
__
  6
CONTINUOUS
 62
               4
  0
POLYLINE
  8
__
  6
CONTINUOUS
 62
               4
 66
               1
 70
               1
  0
VERTEX
  8
__
  6
CONTINUOUS
 62
               4
 10
-11.508368651659225
 20
-288.99354710474563
  0
VERTEX
  8
__
  6
CONTINUOUS
 62
               4
 10
-13.158368651659316
 20
-290.64354710474527
  0
VERTEX
  8
__
  6
CONTINUOUS
 62
               4
 10
-13.158368651659316
 20
-284.34354710474508
  0
VERTEX
  8
__
  6
CONTINUOUS
 62
               4
 10
-11.508368651659225
 20
-285.99354710474563
  0
SEQEND
  8
__
  6
CONTINUOUS
 62
               4
  0
POLYLINE
  8
__
  6
CONTINUOUS
 62
               4
 66
               1
 70
               1
  0
VERTEX
  8
__
  6
CONTINUOUS
 62
               4
 10
-11.508368651659225
 20
-286.2100534556912
  0
VERTEX
  8
__
  6
CONTINUOUS
 62
               4
 10
-11.008368651659225
 20
-286.2100534556912
  0
VERTEX
  8
__
  6
CONTINUOUS
 62
               4
 10
-11.008368651659225
 20
-288.77704075379916
  0
VERTEX
  8
__
  6
CONTINUOUS
 62
               4
 10
-11.508368651659225
 20
-288.77704075379916
  0
SEQEND
  8
__
  6
CONTINUOUS
 62
               4
  0
TEXT
  8
__
 62
               4
 10
-7.9694797627701428
 20
-288.34632488252237
 40
3.8006293402777782
  1
6
 50
90.0
  7
_______
 11
-12.461553547492365
 21
-288.34632488252237
  0
LINE
  8
__
  6
STYLE_06
 62
               4
 10
-26.558368651659407
 20
-287.49354710474563
 11
4.8416313483406839
 21
-287.49354710474563
  0
INSERT
  8
__
 62
               4
  2
___________-2
 10
-20.158368651659032
 20
-287.49354710474518
 50
90.0
  0
TEXT
  8
__-1
 62
               4
 10
-66.768090873881448
 20
-289.4324359936345
 40
3.8006293402777782
  1
M3×6mm皿ネジ
  7
_______
 11
-66.768090873881448
 21
-284.94036220891229
  0
TEXT
  8
__-1
 62
               4
 10
5.5832980150074434
 20
-289.46299154919006
 40
3.8006293402777782
  1
×３６
  7
_______
 11
5.5832980150074434
 21
-284.97091776446786
  0
TEXT
  8
__-1
 62
               4
 10
-16.508368651659225
 20
-30.990769326967861
 40
7.4083333333333323
  1
A
 11
-16.508368651659225
 21
-22.397102660301194
  0
TEXT
  8
__-1
 62
               4
 10
45.29251490628468
 20
-27.021324882523427
 40
7.4083333333333323
  1
B
 11
45.29251490628468
 21
-18.427658215856759
  0
TEXT
  8
__-1
 62
               4
 10
10.874964681674101
 20
-80.192638373531707
 40
7.4083333333333323
  1
D
 11
10.874964681674101
 21
-71.598971706865044
  0
TEXT
  8
__-1
 62
               4
 10
22.258298015007441
 20
-132.9602137714123
 40
7.4083333333333323
  1
E
 11
22.258298015007441
 21
-124.36654710474564
  0
TEXT
  8
__-1
 62
               4
 10
111.15928292963221
 20
-135.19354710474587
 40
7.4083333333333323
  1
F
 11
111.15928292963221
 21
-126.59988043807921
  0
TEXT
  8
__-1
 62
               4
 10
-21.508368651659225
 20
-193.9602137714123
 40
7.4083333333333323
  1
G
 11
-21.508368651659225
 21
-185.36654710474562
  0
TEXT
  8
__-1
 62
               4
 10
-29.908368651659231
 20
-217.78782177940909
 40
7.4083333333333323
  1
H
 11
-29.908368651659231
 21
-209.19415511274241
  0
TEXT
  8
__-1
 62
               4
 10
-29.908368651659231
 20
-229.72688043807872
 40
7.4083333333333323
  1
I
 11
-29.908368651659231
 21
-221.13321377141204
  0
TEXT
  8
__-1
 62
               4
 10
-28.875035318325899
 20
-251.06021377141175
 40
7.4083333333333323
  1
J
 11
-28.875035318325899
 21
-242.46654710474508
  0
TEXT
  8
__-1
 62
               4
 10
-28.625035318325899
 20
-266.72688043807869
 40
7.4083333333333323
  1
K
 11
-28.625035318325899
 21
-258.13321377141204
  0
TEXT
  8
__-1
 62
               4
 10
-28.308368651659237
 20
-285.12688043807833
 40
7.4083333333333323
  1
L
 11
-28.308368651659237
 21
-276.53321377141168
  0
TEXT
  8
__-1
 62
               4
 10
102.99163134834077
 20
-23.960213771412295
 40
7.4083333333333323
  1
C
 11
102.99163134834077
 21
-15.366547104745628
  0
ENDSEC
  0
EOF
